a b c d e f g h i j k l m n o p q r s t u v w x y z 0-9

I Feel Fine

The Beatles

			
Este es el riff de I feel fine esta perfecto comentenlo si quieren, gracias!!!



E----------------------------------------------------------
B----------------------------------------------------------
G-----------------------12---11---------11-----------------
D------12--12--10-----------------14---------14------------
A-------------------12-------------------------------------
E--10------------------------------------------------------


E----------------------------------------------------------
B----------------------------------------------------------
G----------------------10-----9-----------9----------------
D-----10--10---8-------------------12---------12-----------
A-----------------10---------------------------------------
E--8-------------------------------------------------------


E---------------------------------------------------------
B---------------------------------------------------------
G-------------------5----4---------4----------------------
D-----5--5--3-----------------7---------7-----------------
A---------------5-----------------------------------------
E--3------------------------------------------------------    x2

Fuente: tusacordes.com