a b c d e f g h i j k l m n o p q r s t u v w x y z 0-9

Hey Bulldog

The Beatles

			
Hey bulldog   Mc cartney/ Lennon

Intro solo:

|---------------------------------------------------------|
|--12-12-12-12-12-12-12-12-12------------------4-2--2-4--5|
|----------------------------------------------4-2--2-4--6|x2
|-------------------------------9/2/4--6----4-------------|
|-------------------------------9/2/4--6------------------|
|---------------------------------------------------------|


|------------------------4--------12-12-12-12-12|
|---5-5-5-4-2-2-3-2----3--3---------------------|
|---6-6-6-5-2-2-4-2--4--------------------------|
|-----------------------------------------------|
|-----------------------------------------------|
|-----------------------------------------------|

|-----------------------------------------------|
|---5-5-5-4-2-2-3-2---4-4-4-4-4-----7-7-7-7-7---|
|---6-6-6-5-2-2-4-2---4-4-4-4-4-----8-8-8-8-8---|
|-----------------------------------------------|
|-----------------------------------------------|
|-----------------------------------------------|

Epero q disfruten este solo.

Fuente: tusacordes.com