a b c d e f g h i j k l m n o p q r s t u v w x y z 0-9

Here There And Everywhere

The Beatles

			
1|-------5-3---0-----|----------0-----------------|
T|--0--3-----0---3---|-0--1--3----------0---------|
A|0------------------|-------------0-2------------|
B|-------------------|----------------------------|
 |-------------------|----------------------------|
6|-------------------|----------------------------|

|----------------------------2--0-----------------|
|-1-0-0---0-1-0-0---------0--------2------------|
|-----------------2-0-2--------------------------|
|-----------------------------------------------|
|-----------------------------------------------|
|-----------------------------------------------|

|-----------1---|------------------------|--------|
|------1-3----3-|:-1-3-4-1-------1-3----:|-3--0---|
|--2-3----------|:---------2-2-3-----3-0:|------0-|
|---------------|:----------------------:|--------|
|---------------|:----------------------:|--------|
|---------------|------------------------|--------|Fuente: Tus acordes