a b c d e f g h i j k l m n o p q r s t u v w x y z 0-9

Here Comes The Sun

The Beatles

			
Quería compartir mi primer aporte a esta página que me ha ayudado tanto en mis comienzos con la guitarra, a continuación les dejo el intro de here come the sun, que hace un tiempo la busqué y no la encontré
 
INTRO

E--9--------9---------9----------------------------------------
B----10--12---10--------12--10----10--12--10----9----9--10--12-
G------------------------------11------------11---11-----------
D--------------------------------------------------------------
A--------------------------------------------------------------
E--------------------------------------------------------------

E--9--------9---------9------------9-------------
B----10--12---10--------12--10-------12--10--9---
G------------------------------11----------------
D------------------------------------------------
A------------------------------------------------
E------------------------------------------------Fuente: Tus acordes