a b c d e f g h i j k l m n o p q r s t u v w x y z 0-9

Here Comes The Sun (intro)

The Beatles

			
1 |-10----8-10-----10-8---------8-----------------------------|
2 |----11------11-------11-8-11---11-8-6----------------------|
3 |-----------------------------------------------------------|
4 |-----------------------------------------------------------|
5 |-----------------------------------------------------------|
6 |-----------------------------------------------------------|

1 |-10----8-10-----10-8------10-8-----------------------------|
2 |----11------11-------11-8------11-10-----------------------|
3 |-----------------------------------------------------------|
4 |-----------------------------------------------------------|
5 |-----------------------------------------------------------|
6 |-----------------------------------------------------------|

Fuente: tusacordes.com