a b c d e f g h i j k l m n o p q r s t u v w x y z 0-9

Get Back

The Beatles

			
ok esta cancion me salio recien y esta muy buena
Los acordes son
A                                               G        D
En A debes solo raspar las 3 ultimas cuerdas   

Ahora en la cancion


e|--------------------------------------------------
B|--------------------------------------------------
G|--------------------------------------------------
D|--------------------------------------------------
A|----7-----7------7------7-----9----9--------------
E|----5-----5------5------5-----5----5--------------

e|--------------------------------------------------
B|--------------------------------------------------
G|--------------------------------------------------
D|--------------------------------------------------
A|----7-----7------7------7-----9----9--------------
E|----5-----5------5------5-----5----5--------------


e|--------------------------------------------------
B|--------------------------------------------------
G|--------------------------------------------------
D|----7-----7-------7------7-----9----9-------------
A|----5-----5-------5------5-----5----5-------------
E|--------------------------------------------------

e|--------------------------------------------------
B|--------------------------------------------------
G|--------------------------------------------------
D|----7-----7-------7------7-----9----9-------------
A|----5-----5-------5------5-----5----5-------------
E|--------------------------------------------------
y se repite de nuevo y ahora el solo
e|-----------------------12----------------------------------
B|------10-10-10-12-12-14---14-12-10---10---------------------
G|----11---------------------------11-------------------------
D|-----------------------------------------------9-12-10----10
A|-----------------------------------------9-12----------12---
E|------------------------------------------------------------

Fuente: tusacordes.com