a b c d e f g h i j k l m n o p q r s t u v w x y z 0-9

Eight Days A Week

The Beatles

			
Eight Days a Week ? The Beatles tambien acordes para acompañar

Intro: C-D-F

         C                     D            F                      C
E ----0--------------------------------1--1---0--------------------------------------         
B -------3---1---3---3------------1-------------------------------------------------
G -----------------------2----2------------------------------------------------------             
D ------------------------------------------------------------------------------------
A ------------------------------------------------------------------------------------
E  ------------------------------------------------------------------------------------ 
Se repite una vez


       Am             F                            Am             D          C               D
E ----0-------------------------------0-------------------------0---------------------         
B -------1-------3-----------------------1------------------------3-1-1-3-3---------
G -----------------------2------------------------3--------------------------------2-             
D ------------------------------------------------------2-----------------------------
A ------------------------------------------------------------------------------------
E  ------------------------------------------------------------------------------------

         F                     C              G                Am                        D
E ----1--1--1--0---------------------0-------------------------------------0---------         
B -------------------3--2------3--3----3------1-3-1-3-1-3-1-------3--3----3------
G ----------------------------------------------------------------2---------------------             
D --------------------------------------------------------------------------------------
A --------------------------------------------------------------------------------------
E  --------------------------------------------------------------------------------------

         F               G  
E ----------------------------1-------------------------------------------------------        
B ----1-3-1-3-1-3-3----------------------------------------------------------------
G ------------------------------------------------------------------------------------             
D ------------------------------------------------------------------------------------
A ------------------------------------------------------------------------------------
E  ------------------------------------------------------------------------------------

         C                     D            F                      C
E ----0--------------------------------1--1---0--------------------------------------         
B -------3---1---3---3------------1-------------------------------------------------
G -----------------------2----2------------------------------------------------------             
D ------------------------------------------------------------------------------------
A ------------------------------------------------------------------------------------
E  ------------------------------------------------------------------------------------ 
Se repite una vez

       Am             F                            Am             D          C               D
E ----0-------------------------------0-------------------------0---------------------         
B -------1-------3-----------------------1------------------------3-1-1-3-3-----------
G -----------------------2------------------------3--------------------------------2--             
D ------------------------------------------------------2-----------------------------
A ------------------------------------------------------------------------------------
E  -----------------------------------------------------------------------------------

         F                     C          F                    C                       
E ----1--1--1--0---------------1--1--1-0----------------------------------------------         
B -------------------3--2------------------------3-2----------------------------------

Fuente: Tusacordes