a b c d e f g h i j k l m n o p q r s t u v w x y z 0-9

Drive My Car

The Beatles

			
DRIVE MY CAR          voten porfa
      
   intro
E|--------------------------------------------------------------
G|---------------------6---------7--7--5-----5--7---------------
D|-----5-?7------5------------5--7--7--5-----5--7---------------
A|--7---------------7---------------------7---------------------
E|--------------------------------------------------------------
G|--------------------------------------------------------------


                    solo
        D                           G
-|--------------10-8-------------------------------
-|-------------------------10-8--6--8--8--8--6--8--
-|-----6-7-----------7-----------------------------
-|--7----------------------------------------------
-|-------------------------------------------------
-|-------------------------------------------------

        D                           G
-|--------------10-8-------------------------------
-|-------------------------10-8--6--8--8--8--6--8--
-|-----6-7-----------7-----------------------------
-|--7----------------------------------------------
-|-------------------------------------------------
-|-------------------------------------------------

        

    A                                          Bm
-|----------------------------------------------------------
-|--10--10-13---13--13---15---15--15--18-----18-15--13--15--
-|----------------------------------------------------------
-|----------------------------------------------------------
-|----------------------------------------------------------
-|----------------------------------------------------------

Fuente: tusacordes.com