a b c d e f g h i j k l m n o p q r s t u v w x y z 0-9

Dig A Pony

The Beatles

			
Intro: X2
        G                  D                     A
G\----------------/-----------7----/----------------2------------\\
D\-----------5----/-------7-9---9--/-2-2-2------2/4---4-2-----2--\\
A\-------5-7---7--/-5-7/9----------/-0-0-0--3-4-----------3/4----\\   
E\-3-5/7----------/----------------/-----------------------------\\

A
I...Ihi...hi..Ihi..hi
F#m 
dig a pony
                        Bm                     G     RIFF1
well you can celebrate anything you want
             Bm           G         E7    RIFF2
well you can celebrate anything you want   ohhh...

A
I...Ihi...hi..Ihi..hi
F#m
do a road hog
             Bm                      G    RIFF1
well you can penetrate any place you go
            Bm            G         E7    RIFF3
yes you can penetrate any place you go

I told you

CORO:
G     D        A  RIFF4
all i want is you.
G                      D                       A
ev'rything has got to be just like you want it to

because
A
I...Ihi...hi..Ihi..hi
F#m
pick a moondog
             Bm                     G    RIFF1                  
well you can radiate ev'rything you are
             Bm       G             E7   RIFF2
yes you can radiate ev'rything you are   ohh...
 
A
I...Ihi...hi..Ihi..hi
F#m
roll a stoney
             Bm                   G     RIFF1
well you can imitate ev'ryone you know

yes you can imitate ev'ryone you know   RIFF3

I told you

CORO:
G      D       A  RIFF4
all I want is you.
G                     D                         A
ev'rything has got to be just like you want it to

because

SOLO:

e\--------------------------------14-----------------------\\
B\-----------10-12-10----12/14--14---14-10----10-12-12/15--\\
G\-9-11-9-------------11-------------------11--------------\\
D\--------11-----------------------------------------------\\

e\-----------------------------------------\\---------12---------14----------16
B\-15-15-15-----------------------15-15-15-\\
G\----------10--10-10/12-10---10-----------\\12---12-13---13-13/14----14-14/16-
D\--------------------------12-------------\\

e\-----------12---------14----------16----14----12--\\
B\--------------------------------------------------\\
G\-12---12-13---13-13/14---14-14/16----14----13-----\\
D\--------------------------------------------------\\

A
I...Ihi...hi..Ihi..hi
F#m
feel the wind blow
             Bm                       G  RIFF1
well you can indicate ev'rything you see
            Bm        G              E7  RIFF2
yes you can indicate ev'rything you see  ohh...

A
I...Ihi...hi..Ihi..hi 
F#m
dug a pony
             Bm                      G   RIFF1
well you can syndicate any boat you row
            Bm            G          E7  RIFF3
yes you can syndicate any boat you row

I told you

CORO:
G      D       A   RIFF4
all i want is you.
G                     D                        A
ev'rything has got to be just like you want it to

because

    G                  D                     A
G\----------------/-----------7----/----------------2------------\\
D\-----------5----/-------7-9---9--/-2-2-2------2/4---4-2-----2--\\
A\-------5-7---7--/-5-7/9----------/-0-0-0--3-4-----------3/4----\\  X2 
E\-3-5/7----------/----------------/-----------------------------\\


RIFF1

e\-3-5-5/7-5-3--\\
B\--------------\\
G\-4-5-5/7-5-4--\\

RIFF2
e\---0---2---4---5---7---7-7/9--\\
B\------------------------------\\
G\-1---2---4---6---7---7---7/9--\\

RIFF3
e\---9---7---4---2---0--\\
B\----------------------\\
G\-9---7---4---2---1----\\

RIFF4
G\----------------2------------\\
D\-2-2-2------2/4---4-2-----2--\\
A\-0-0-0--3-4-----------3/4----\\   

Fuente: MUSICA.COM con unos arreglos miosFuente: Tus acordes