a b c d e f g h i j k l m n o p q r s t u v w x y z 0-9

Dear Prudence

The Beatles

			
Intro and Fade Out
E |-14--------------12--------------10--------------8------------7-----------|
B |-----------12--------------10--------------10------------8------------8---|
G |------14--------------12--------------11-------------9------------7-------|
D |----0---------0-----0---------0-----0---------0----0-------0----0-------0-|
A |--0---------------0---------------0--------------0------------0-----------|
D |---------0---------------0---------------0-------------0------------0-----|

E |--5------------3------------3-----------|
B |----------7------------5------------5---|
G |------7------------5------------4-------|
D |----0-------0----0-------0----0-------0-|
A |--0------------0------------0-----------|
D |--------0------------0------------0-----|

    Melody repeats
E |-2-----------2-----------2-----------2-----------2-----------|
B |---------3-----------3-----------3-----------3-----------3---|
G |-----2-----------2-----------2-----------2-----------2-------|  
D |---0-------0---0-------0---0-------0---0-------0---0-------0-|
A |-0-----------3-----------2-----------1-----------0-----------|
D |-------0-----------0-----------0-----------0-----------0-----|
  
       Won't you come out to play
 |--0------------3------------2--
 |--1------------0------------3--
 |--0------------0------------2--
 |--2------------0------------0--
 |--3------------2------------0--
 |--0------------0------------0--

     Look around.......
  E |--1--4--3-----|  
  B |--1--4--3-----|  
  G |--2--5--4-----|
  D |--0--0--0-----|
  A |--0--0--0-----|
  D |--0--0--0-----|

Fuente: Tusacordes