a b c d e f g h i j k l m n o p q r s t u v w x y z 0-9

Day Tripper

The Beatles

E
A7
A
F#
C#
B
			
Day Tripper
Áño: 1965 - Álbum: WE CAN  WORK IT OUT
[Lennon/McCartney]
PUNTEO 1  E
-------------------------------------------------------
-------------------------------------------------------
-------------------------------------------------------
--------------2-0---4----0-2---------------------------
-----------2------2---2--------------------------------
-0----3-4----------------------------------------------

Punteo2
 A7
-------------------------------------------------------
-------------------------------------------------------
--------------2-0---4----0-2---------------------------
-----------2------2---2--------------------------------
-0----3-4----------------------------------------------
-------------------------------------------------------

Intro: Punteo1 [x5]

Punteo1
 E
Got a good reason, for taking the easy way out
Punteo2              Punteo1
 A                      E
Got a good reason, for taking the easy way out
           F#
She was a day____ tripper, one way ticket yeah
           A7     G#7          C#               B
It took me so____ long to find out, and I found out

Punteo1 [x2]
  E
She's a big teaser, she took me half the way there
Punteo2              Punteo1
 A                    E
She's a big teaser, she took me half the way there

          F#
She's a day tripper, one way ticket, yeah
           A7  G#7          C#               B
It took me so long to find out, and I found out

SOLO
e|----------------------------------------------||
B|----------------------2-----------------------||3 VESES
G|-4-----------4--2-----------2--4--------------|| 
D|-4--0--1--4--------4-----4--------------------||
A|-2--------------------------------------------||
E|----------------------------------------------||

e|--------------------------5b------------||
B|--------3------3---5h-7--------7---5----||
G|-4---4-----4----------------------------||
D|----------------------------------------||
A|----------------------------------------||
E|----------------------------------------||

E|-----------10-------10---12b14b12---10------------14-17-19---||
B|-12~--12~-------12-----------------------12---15-------------||
G|-------------------------------------------------------------||
D|-------------------------------------------------------------||
A|-------------------------------------------------------------||
E|-------------------------------------------------------------||


Punteo1 [x2]
  E
Tried to please her, but she only played one night stands
Punteo2                 Punteo1
 A                         E
Tried to please her, but she only played one night stands
          F#
She was a day tripper, Sunday driver, yeah
           A7     G#7          C#               B
It took me so long to find out, and I found out

Punteo1 [x4]

Punteo1...
Day Tripper, Day tripper yeah




LAS NOTAS SUENAN MEJOR EN QUINTAS

Fuente: Tusacordes