a b c d e f g h i j k l m n o p q r s t u v w x y z 0-9

Day Tripper

The Beatles

			
e ---------------------------------
b----------------------------------
g----------------------------------      x7
d ----------2--0-----4---0--2------   
a -------2---------2---2-----------
e 0--3-4---------------------------



e ---------------------------------
b ---------------------------------
g ----------2--0-----4---0--2------      x1
d -------2---------2---2-----------
a 0--3-4---------------------------
e ---------------------------------


e ---------------------------------
b----------------------------------
g----------------------------------      x1
d ----------2--0-----4---0--2------   
a -------2---------2---2-----------
e 0--3-4---------------------------

Despues Viene Un Fa#m Y Se Repite

Fuente: Tusacordes