a b c d e f g h i j k l m n o p q r s t u v w x y z 0-9

Come Together (guitarra 1)

The Beatles

			
---------------------------------
---------------------------------
------------5-------------------- 
----0-0-5/7----------------------
---------------------------------
---------------------------------


luego

----------                                       -----------
----------                                       -----------
---2-3---- varias veces hasta que cambia el tono -----------
----------                                       ---2-3-----
----------                                       -----------
----------                                       -----------



y


------------------------------------------
------------------------------------------
------------------------------------------
--4-4-4-4-4-4-4-4--2-2--------------------
--2-2-2-2-2-2-2-2--0-0--5-5-5-5-7---------
------------------------3-3-3-3-5---------

eso nomas es de la guitarra 1

Fuente: tusacordes.com