a b c d e f g h i j k l m n o p q r s t u v w x y z 0-9

Blackbird

The Beatles

			
e---------------------------------------------------
G---0--------1---------3---------12-----12----12----
B------0---------0---------0---------0-----0--------
D---------------------------------------------------
A------------0---------2---------10-----------------
E---3-----------------------------------------------


e----------------------|----------------------------
B---12-----12-----12---|-0-------1---------3--------
G-------0------0-------|----0--------0---------0----
D----------------------|----------------------------
A---10-----------------|-------------------2--------
E----------------------|-3-------0------------------

e---------------------------------------------------
B---12-----12-----12-------12------12-----12--------
G-------0------0----------------0------0------------
D---------------------------------------------------
A---10---------------------10-----------------------
E---------------------------------------------------

e----------3--------------5-------------------------
B---5--------------7---------------8-----8-----8----
G------0------0-------0------0-------0-----0--------
D---------------------------------------------------
A---3------4-------5------6-------7-----------------
E---------------------------------------------------

e---------------------------3-----------------------
B---8-----8-----8---7---------------5----5-----5----
G------0-----0---------0-------0--------------------
D-------------------------------------------0-----0-
A---6---------------5-------4-------3---------------
E---------------------------------------------------

e---------------------------------------------------
B---4------4------4---3-----3-----3---2-----2-----2-
G--------0-----0---------0-----0---------0----0----
D---------------------------------------------------
A---3-----------------2---------------1-------------
E---------------------------------------------------

                   Acá vuelve a empezar todo de nuevo
e------------------||-------------------------------
B---1-----1-----1--||---0--------1---------3--------
G------0-----0-----||------0---------0---------0----
D------------------||-------------------------------
A---0--------------||------------0---------2--------
E------------------||---3---------------------------

Fuente: tusacordes.com