a b c d e f g h i j k l m n o p q r s t u v w x y z 0-9

And I Lover Her

The Beatles

			
1-----------------------------
2-----1--0--------------------  
3--2--------2-----------------    X3
4-----------------------------
5-----------------------------
6-----------------------------


1-----------------------------
2-----------0---1--------  
3-------------2-----------    
4---0-2-3--------------------
5-----------------------------
6-----------------------------

1-----------------------------
2-----------0------------  
3-------------2-2----------    
4---0-2-3--------------------
5-----------------------------
6-----------------------------

1-----------------------------
2-----------0---1--------  
3-------------2-----------    
4---0-2-3--------------------
5-----------------------------
6-----------------------------

1-----------------------------
2--1----------------------  
3----2---------------------    
4------3--2--0---------2---------
5---------------0---0-----------
6-----------------3------------


1-----------------------------
2-----------0---1--------  
3-------------2-----------    
4---0-2-3--------------------
5-----------------------------
6-----------------------------

1-----------------------------
2--1----------------------  
3----2---------------------    
4------3--2--0---------2---------
5---------------0---0-----------
6-----------------3------------

1-----------------------------
2-----1--0--------------------  
3--2--------2-----------------    X2
4-----------------------------
5-----------------------------
6-----------------------------

Fuente: Tusacordes