a b c d e f g h i j k l m n o p q r s t u v w x y z 0-9

And I Lover Her

The Beatles

			
1/-------------------------------------------------------
2/--------5-3-6-------------5-3----------5-3-6-6-3-------
3/---2-3---------------2-3-----------2-3-----------------
4/--5----------------5-------------5---------------3-2-0-
5/-------------------------------------------------------
6/------------------------------------------------------- 

1/----------------------------------------
2/----------------------------------------
3/-----------2---------------------------- 
4/-----------------3-0----------------------
5/----5-5--7------------------------------
6/-----------------------3-1-3---------------

Fuente: tusacordes.com