a b c d e f g h i j k l m n o p q r s t u v w x y z 0-9

And I Love Her

The Beatles

Em
Bm
G
A
D
F#m
			
hola que tal a todos, pues les traigo esta cancion
de los beatles que pues esta bastante facil. para esto usaremos
un capo en el segundo traste. suena a la perfeccion!.

EL RASGUEO DE TODA LA CANCION ES : *abajo, abajo, arriba,abajo arriba,abajo, arriba,abajo, abajo, arriba, abajo, 

*cualqiera le puede poner el ritmo que quiera :]

INTRO: 

PUNTEO

1--------------------------------------
2--------------------------------------
3--------------------------------------
4--------0-----------------------------
5--0-------------4---------2----------> [si gustan aqui
en ves de tocar el trase "2" pueden terminar con un Em 
,MEJORA MUCHO EL SONIDO.]

despues de terminar en mi menor el intro sigue de esta manera

Em, 

4--------0-----------------------------
5--0-------------4---------Bm


4--------0-----------------------------
5--0-------------4---------2----------

Em        Bm     
I give her all my love 
Em         Bm   
That's all I do 
Em         Bm 
And if you saw my love 
G           A 
You'd love her too 
 D 
I love her
 
Em        Bm 
She gives me everything 
Em        Bm 
And tenderly 
Em        Bm 
The kiss my lover brings 
G           A 
She brings to me 
D
And I love her 

Bm         F#m
A love like ours
Bm         F#m 
Could never die 
Bm         F#m
As long as I 
A 
Have you near me 
Em        Bm
Bright are the stars that shine 
Em        Bm
Dark is the sky 
Em        Bm
I know this love of mine 
G           A 
Will never die
D 
And I love her

SOLO/PUNTEO:


1---------------------------------------------------
2---------------------------------------------------
3--------------9-7-7/10----------------9-9/7---------
4----5--7-8------------------5--7-8-----------------
5---------------------------------------------------
6---------------------------------------------------

1---------------------------------------------------
2---------------------------------------------------
3-------------9-7-7/10-------11-7-------------------
4---5--7-8-------------------------8-7--7/5---------
5---------------------------------------------------
6---------------------------------------------------

1---------------------------------------------------
2---------------------------------------------------
3---------------------------------------------------
4------------7---------------------------------------
5---5--3--5--------------------------------------------
6--------------------------5--3--1-1/3--------------------



Em        Bm
Bright are the stars that shine 
Em        Bm
Dark is the sky 
Em        Bm
I know this love of mine 
G           A 
Will never die 
D 
And I love her

*SE repite el inicio: 

4--------0-----------------------------
5--0-------------4--------Em 

4--------0-----------------------------
5--0-------------4---------Bm

4--------0-----------------------------
5--0-------------4--------Em 

4--------0-----------------------------
5--0-------------4--------

y terminas haciendo una cejilla en el segundo traste,
 que vendria siendo el cuarto sin el capo, [recuerda 
que estas usando un capo en el segundo traste]

pero solo tocas las ultimas 3 cuerdas, la 4ta,5ta,y 6ta.


MEJOR EXPLICADA NO PUEDE ESTAR :]

DEJEN SUS DUDAS, QUEJAS Y COMENTARIOS POR FAVOR :]Fuente: Tus acordes