a b c d e f g h i j k l m n o p q r s t u v w x y z 0-9

And I Love Her

The Beatles

			
E|-------------------------------------------------------
B|-------3-1-4--------3-1--------3-1-4--4-1--------------
G|---0-1----------0-1--------0-1------------1-0---------0
D|-3------------3----------3--------------------3--------
A|------------------------------------------------3-1-3--
E|-------------------------------------------------------

E|-------------------------------------------------------
B|-------3-1-4--------3-1--------3-1-4--4-1--------------
G|---0-1----------0-1--------0-1------------1-0---------0
D|-3------------3----------3--------------------3--------
A|------------------------------------------------3-1-3--
E|-------------------------------------------------------

E|-------------------------------------------------------
B|-------3-1-4--------3-1--------3-1-4--4-1--------------
G|---0-1----------0-1--------0-1------------1-0----------
D|-3------------3----------3--------------------3--------
A|-------------------------------------------------------
E|-------------------------------------------------------

E|-------------------------------------------------------
B|-------3-1-4--------3-1--------3-1-4--4-1--------------
G|---0-1----------0-1--------0-1------------1-0---------0
D|-3------------3----------3--------------------3--------
A|------------------------------------------------3-1-3--
E|-------------------------------------------------------

Fuente: Tusacordes