a b c d e f g h i j k l m n o p q r s t u v w x y z 0-9

And I Love Her

The Beatles

Am
Em
C
Gm
G
Bm
E
			
he aquí una de las clásicas, es la primera q subo así q trate de hacerla lo mejor entendible posible, pero le tendrán q encontrar el ritmo. Esta se la dedico a M.G.S.B                                                

----------------------
----------------------
-0--------------------
0-5-3-----------------
----------------------
----------------------[x3]  [adorno]


Am              Em
I give her all my love
             Am
That's all I do
                  Am
And if you saw my love
C              Gm
You'd love her too
G
I love her


Am                Em
She gives me everything
          Am
And tenderly
                  Am
The kiss my lover brings
C             Gm
She brings to me
     G
And I love her



Em          Bm
A love like ours
            Em
Could never die
           Bm
As long as I
         Gm 
Have you near me


Am                        Em
Bright are the stars that shine
            Am
Dark is the sky
                    Em
I know this love of mine
C          Gm
Will never die
     G
And I love her



Intermedio musical
[adorno]
am
em
am
em
C
gm
g[adorno]



Am                        Em
Bright are the stars that shine
            Am
Dark is the sky
                    Em
I know this love of mine
C          Gm
Will never die
     G
And I love her

fin musical
[Adorno] Am [adorno] Em [adorno] Am [adorno] E

aquí otros adornos que no van en el inicio, intermedio y fin musical

--0---0---0---0--------0---0---2---2---1---1---1-1----
-1-1-1-1-0-0-0-0-[x4]-1-1-1-1-1-1-1-1-0-0-0-0-0-0-----
2---2---0---0--------0---0---2---2---0---0---0--------
------------------------------------------------------
------------------------------------------------------
------------------------------------------------------

Fuente: Tusacordes