a b c d e f g h i j k l m n o p q r s t u v w x y z 0-9

And I Love Her

The Beatles

Dm
Am
F
G
C
			
Dm             Am
I give her all my love
Dm          Am

That's all I do
Dm              Am
And if you saw my love
F           G
You'd love her too
C
I love her
Dm           Am
She gives me everything
Dm  Am
And tenderly
Dm          Am   
The kiss my lover brings
F          G
She brings to me
C
And I love her

Am          G
A love like ours
Am          G
Could never die
Am         G
As long as I
Dm             Am
Have you near me
Dm            Am
Bright are the stars that shine
Dm          Am
Dark is the sky
Dm          Am
I know this love of mine
F          G
Will never die
C
And I love her
[SOLO]
1---------------------------------------------------
2---------------------------------------------------
3--------------9-7-7/10----------------9-9/7---------
4----5--7-8------------------5--7-8-----------------
5---------------------------------------------------
6---------------------------------------------------

1---------------------------------------------------
2---------------------------------------------------
3-------------9-7-7/10-------10-7-------------------
4---5--7-8-------------------------8-7--7/5---------
5---------------------------------------------------
6---------------------------------------------------

1---------------------------------------------------
2---------------------------------------------------
3---------------------------------------------------
4------------7--------------------------------------
5---5--3--5------------------3---0------------------
6----------------------------------3---1---1/3------
Dm                        Am
Bright are the stars that shine
Dm          Am
Dark is the sky
Dm          Am
I know this love of mine
F          G
Will never die
C
And I love her

Fuente: Tusacordes