a b c d e f g h i j k l m n o p q r s t u v w x y z 0-9

And I Love Her

The Beatles

F#m
C#m
A
E
			
[Introducción]
1---------------------------------------------------
2---------------------------------------------------
3---------------------------------------------------
4-----7---6-----4-------7---6---4------7---6---4----
5---7-----------------7--------------7--------------
6---------------------------------------------------


 F#m             C#m
I give her all my love
 F#m         C#m
That's all I do
 F#m             C#m
And if you saw my love
 A             Eb
You'd love her too
 E
I love her


 F#m             C#m
She gives me everything
 F#m      C#m
And tenderly
 F#m             C#m
The kiss my lover brings
 A            Eb  
She brings to me
  E
And I love her


 F#m          C#m
A love like ours
 F#m       C#m
Could never die
 F#m     C#m
As long as I
 A       Eb     E
Have you near me


 F#m                     C#m
Bright are the stars that shine
 F#m        C#m
Dark is the sky
 F#m             C#m
I know this love of mine
 A          Eb
Will never die
  E
And I love her
[Solo de Guitarra]
1---------------------------------------------------
2---------------------------------------------------
3--------------9-7-7/10----------------9-9/7---------
4----5--7-8------------------5--7-8-----------------
5---------------------------------------------------
6---------------------------------------------------

1---------------------------------------------------
2---------------------------------------------------
3-------------9-7-7/10-------10-7-------------------
4---5--7-8-------------------------8-7--7/5---------
5---------------------------------------------------
6---------------------------------------------------

1---------------------------------------------------
2---------------------------------------------------
3---------------------------------------------------
4------------7--------------------------------------
5---5--3--5------------------3---0------------------
6----------------------------------3---1---1/3------

F#m                     C#m
Bright are the stars that shine
 F#m        C#m
Dark is the sky
 F#m             C#m
I know this love of mine
 A          Eb
Will never die
  E
And I love her
[Para terminar usa el Solo de guitarra y de Bajo]
1---------------------------------------------------
2---------------------------------------------------
3---------------------------------------------------
4-----7---6-----4-------7---6---4------8---7--5-----
5---7-----------------7--------------8--------------
6---------------------------------------------------

[Manten el sonido de la ultima nota]

Fuente: Lacuerda