a b c d e f g h i j k l m n o p q r s t u v w x y z 0-9

And I Love Her

The Beatles

			
And i love her

Intro:

G|-------------------------------|-------------------------------|
D|-------------------------------|-------------------------------|
A|4-----------4---4--------------|4-----------4---4--------------|
E|-------------------------------|-------------------------------|

G|-------------------------------|-------------------------------|
D|-------------------------------|-------------------------------|
A|2-----------2---2--------------|2-----------2---2--------------|
E|-------------------------------|-------------------------------|

Verso:

G|-------------------------------|-------------------------------|
D|-------------------------------|-------------------------------|
A|4------------4---4-------------|-------------------------------|
E|-------------------------------|4-----------4---4--------------|x3

G|-------------------------------|-------------------------------|
D|7------------------------------|-------------------------------|
A|------------4-----------7------|------------6-----------9------|
E|-------------------------------|7------------------------------|

G|-------------------------------|-------------------------------|
D|------------9------------------|------------9------------------|
A|7---------------------------6--|7-----------------------7---6--|
E|------------------------7------|--------------------7----------|

Verso
     
Puente:

G|-------------------------------|-------------------------------|
D|-------------------------------|-------------------------------|
A|4-----------4-----------4------|-------------------------------|
E|-------------------------------|7-----------7-----------7------|

G|-------------------------------|-------------------------------|
D|-------------------------------|-------------------------------|
A|4-----------4-----------4------|-------------------------------|
E|-------------------------------|4-----------4-----------4------|x2

G|-------------------------------|-------------------------------|
D|-------------------------------|-------------------------------|
A|2-----------2-----------2------|2-----------2-----------2------|
E|-------------------------------|-------------------------------|

Verso:

G|-------------------------------|-------------------------------|
D|------------9------------------|------------9------------------|
A|7---------------------------6--|7-----------------------7------|
E|------------------------7------|-------------------------------|
     





Verse solo:
G|-------------------------------|-------------------------------|
D|5-----------5---5--------------|-------------------------------|
A|-------------------------------|5-----------5---5--------------|
E|-------------------------------|-------------------------------|x3

G|-------------------------------|-------------------------------|
D|-------------------------------|------------5---5--------------|
A|------------8------------------|----------------------------7--|
E|6-----------------------6------|8-----------------------8------|

G|------------5------------------|------------5------------------|
D|-------------------------------|------------------------5------|
A|8---------------------------7--|8---------------------------8--|
E|------------------------8------|-------------------------------|

Verso 2:
G|-------------------------------|-------------------------------|
D|5-----------5---5--------------|-------------------------------|x3
A|-------------------------------|5-----------5---5--------------|
E|-------------------------------|-------------------------------|

G|-------------------------------|-------------------------------|
D|-------------------------------|-------------------------------|
A|------------5-----------8------|------------7-----------10-----|
E|6------------------------------|8------------------------------|

G|-------------------------------|-------------------------------|
D|------------10-----------------|------------10-----------------|
A|8---------------------------7--|8-----------------------8------|
E|------------------------8------|-------------------------------|

Outro:
G|-------------------------------|-------------------------------|
D|5-----------5---5--------------|5-----------5---5--------------|
A|-------------------------------|-------------------------------|
E|-------------------------------|-------------------------------|

G|-------------------------------|-------------------------------|
D|3-----------3---3--------------|3-----------3---3--------------|
A|-------------------------------|-------------------------------|
E|-------------------------------|-------------------------------|

G|-------------------------------|-------------------------------|
D|5-----------5---5--------------|5-----------5---5--------------|
A|-------------------------------|-------------------------------|
E|-------------------------------|-------------------------------|

G|-------------------------------|-------------------------------|
D|-------------------------------|-------------------------------|
A|5------------------------------|-------------------------------|
E|-------------------------------|-------------------------------|

Fuente: tusacordes.com