a b c d e f g h i j k l m n o p q r s t u v w x y z 0-9

And I Love Her

The Beatles

			
|--------------------------------------------|   
|-----------5--3--6--------------------------|   
|--------3-----------------------------------| 
|---5--7-------------------------------------|   
|--------------------------------------------|   
|--------------------------------------------|


|--------------------------------------------|   
|-----------5--3-----------------------------|   
|--------3-----------------------------------| 
|---5--7-------------------------------------|   
|--------------------------------------------|   
|--------------------------------------------|


|----------------------------------------------|   
|-----------5--3--6--6--3----------------------|   
|--------3-----------------3--2----------3-----| 
|---5--7--------------------------3---5--------|   
|----------------------------------------------|   
|----------------------------------------------| 


|----------------------------------------------|   
|----------------------------------------------|   
|----------------------------------------------| 
|----------------------------------------------|   
|----3--0--------------------------------------|   
|-----------3--1--3----------------------------|

Fuente: tusacordes.com