a b c d e f g h i j k l m n o p q r s t u v w x y z 0-9

And I Love Her

The Beatles

			
AQUI LES DEJO EL INTRO Y EL SOLO DE ESTA ROLA

   F#
e|-----------------------------------------|
B|-----------------------------------------|
G|-----------------------------------------|
D|-----2--1--------------------------------|
A|--2--------4-----------------------------|
E|-----------------------------------------|

    C#m
e|-----------------------------------------|
B|-----------------------------------------|
G|-----------------------------------------|
D|-----2--1--------------------------------|
A|--2--------4-----------------------------|
E|-----------------------------------------|

   F#
e|-----------------------------------------|
B|-----------------------------------------|
G|-----------------------------------------|
D|-----2--1--------------------------------|
A|--2--------4-----------------------------|
E|-----------------------------------------|

LES DEJO ES SOLO HAGANLO CON CALMA Y A SU RITMO

e|-----------------------------------------|
B|-----------------------------------------|
G|-----------------------------------------|
D|-----------9--7--7/10-------------9--9/7-|
A|-5---7--8---------------5---7--8---------|
E|-----------------------------------------|

e|-----------------------------------------|
B|-----------------------------------------|
G|-----------------------------------------|
D|-----------9--7--7/10---10--7------------|
A|-5---7--8----------------------8--7--7/5-|
E|-----------------------------------------|

e|-----------------------------------------|
B|-----------------------------------------|
G|-----------------------------------------|
D|-----------7-----------------------------|
A|-5--3--5--------3------------------------|
E|--------------------5--3--1--1/3---------| END

ESPERO QUE LES AYUDE,... DESPUES SUBO LOS ACORDES BAMBA.

ACORDES
    F#          C#m
e|---2------------4--------|
B|---2------------5--------|
G|---2------------6--------|
D|---4------------6--------|
A|---4------------4--------|
E|---2------------X--------|

Fuente: tusacordes.com