a b c d e f g h i j k l m n o p q r s t u v w x y z 0-9

And I Love Her

The Beatles

F#m
C#m
Dm
C
Am
A
F
G
E
B
Bb
D
Em
G#m
Gm
Cm
			
 
----------------------------------------------------------------
?Guitarra 1: John Lenon
?Guitarra 2: Acompañamiento[opcional/necesita capo en el 3er traste]
?Guitarra 3: George Harrison
----------------------------------------------------------------



?Intro:
Guitarra 1:
         F#m        E6         F#m        C#m
Guitarra 2:
        Dm          C           Dm         Am 

Guitarra 3:
-|-------------------------------------------------------------
-|-------------------------------------------------------------
-|-------------------------------------------------------------
-|-------------------------------------------------------------
-|------5--4--2---------5--4--2---------5--4--2----------------
-|---5---------------5---------------5-------------------------


G.1:F#m             C#m
G.2:Dm              Am
I give her all my love
G.1:F#m       C#m
G.2:Dm        Am
That's all I Do
G.1:F#m             C#m
G.2:Dm              Am
And if you saw my love
G1:A             Eb
G.2:F            G
You'd love her too
G1: E
G.2:C
I love her


Guitarra1: F#m                          C#m
Guitarra2: Dm                            Am

Guitarra3:
-|----------9--------------9------------9-----------9----------
-|------10-----10------10-----10-----9-----9-----9-----9-------
-|--11-------------11-------------9-----------9----------------
-|-------------------------------------------------------------
-|-------------------------------------------------------------
-|-------------------------------------------------------------
           She    gives  me       every     thing


Guitarra1: F#m                          C#m
Guitarra2: Dm                            Am

Guitarra3:
-|----------9--------------9------------9-----------9----------
-|------10-----10------10-----10-----9-----9-----9-----9-------
-|--11-------------11-------------9-----------9----------------
-|-------------------------------------------------------------
-|-------------------------------------------------------------
-|-------------------------------------------------------------
           And     tender        ly


Guitarra1: F#m                          C#m
Guitarra2: Dm                            Am

Guitarra3:
-|----------9--------------9------------9-----------9----------
-|------10-----10------10-----10-----9-----9-----9-----9-------
-|--11-------------11-------------9-----------9----------------
-|-------------------------------------------------------------
-|-------------------------------------------------------------
-|-------------------------------------------------------------
           The     kiss my       lover     brings


Guitarra1: A                           B7
Guitarra2: F                           G

Guitarra3:
-|---------9-------------9--------------11---------------------
-|-----10-----10-----10-----10------10------10-----------------
-|--9-------------9-------------11-----------------------------
-|-------------------------------------------------------------
-|-------------------------------------------------------------
-|-------------------------------------------------------------
          She    brings to      me

Guitarra1:  E
Guitarra2:  C

Guitarra3:
-|----------11------------9-----------9-----------9------------
-|------10------10-----9-----9-----9-----9-----9-----9---------
-|--11--------------9-----------9-----------9-----------9------
-|-------------------------------------------------------------
-|-------------------------------------------------------------
-|-------------------------------------------------------------
       And  I  love    her


G.1: C#m      B
G.2: Am        G
A love like ours
G.1: C#m      B
G.2: Am      G
Could never die
G.1: C#m    B
G.2: Am     G
As long as I
G.1: F#m  Bb     F
G.2:C     D     Em
Have you near me


Guitarra 3:
-|-------------------------------------------------------------
-|-------------------------------------------------------------
-|-------------------------------------------------------------
-|-------------------------------------------------------------
-|------5--4--2---------5--4--2---------5--4--2----------------
-|---5---------------5---------------5-------------------------



Guitarra1: F#m                          C#m
Guitarra2: Dm                            Am

Guitarra3:
-|----------9--------------9------------9-----------9----------
-|------10-----10------10-----10-----9-----9-----9-----9-------
-|--11-------------11-------------9-----------9----------------
-|-------------------------------------------------------------
-|-------------------------------------------------------------
-|-------------------------------------------------------------
           Bright    are   the  stars     that   shine


Guitarra1: F#m                          C#m
Guitarra2: Dm                            Am

Guitarra3:
-|----------9--------------9------------9-----------9----------
-|------10-----10------10-----10-----9-----9-----9-----9-------
-|--11-------------11-------------9-----------9----------------
-|-------------------------------------------------------------
-|-------------------------------------------------------------
-|-------------------------------------------------------------
                Dark       is      the                 sky


Guitarra1: F#m                          C#m
Guitarra2: Dm                            Am

Guitarra3:
-|----------9--------------9------------9-----------9----------
-|------10-----10------10-----10-----9-----9-----9-----9-------
-|--11-------------11-------------9-----------9----------------
-|-------------------------------------------------------------
-|-------------------------------------------------------------
-|-------------------------------------------------------------
              I know         this love    of     mine


Guitarra1: A                           B7
Guitarra2: F                            G

Guitarra3:
-|---------9-------------9--------------11---------------------
-|-----10-----10-----10-----10------10------10-----------------
-|--9-------------9-------------11-----------------------------
-|-------------------------------------------------------------
-|-------------------------------------------------------------
-|-------------------------------------------------------------
                  Will          never             die


Guitarra1:  E
Guitarra2:  C

Guitarra3:
-|----------11------------9-----------9-----------9------------
-|------10------10-----9-----9-----9-----9-----9-----9---------
-|--11--------------9-----------9-----------9-----------9------
-|-------------------------------------------------------------
-|-------------------------------------------------------------
-|-------------------------------------------------------------
             And   I   love her


?Guitarra1[cambio de tonada de F#m A G#m]*:
    F#m       C#m       Gm       Cm          G#m       Dm
?Guitarra2:
     Dm       Am         G        C          Am         G

?Guitarra3[Solo]:
-|-----------------------------------------------------------------------
-|-----------------------------------------------------------------------
-|-----------9--7/10---------------9~--7------------------9--7/10--------
-|--5--7--8---------------5--7--8----------------5--7--8-----------------
-|-----------------------------------------------------------------------
-|-----------------------------------------------------------------------

?Guitarra1:
      Bb                      C7                      F                      
?Guitarra2:
       C                       D                      Em
 
?Guitarra3[Solo]:
-|-----------------------------------------------------------------------
-|-----------------------------------------------------------------------
-|--10~-7----------------------------------------------------------------
-|---------8--7--5----------------7~-------------------------------------
-|-----------------------5--3--5--------3--------------------------------
-|-----------------------------------------5--3--1--1/3------------------



Guitarra1: G#m                          Dm
Guitarra2: Am                            G

Guitarra3:
-|----------9--------------9------------9-----------9----------
-|------10-----10------10-----10-----9-----9-----9-----9-------
-|--11-------------11-------------9-----------9----------------
-|-------------------------------------------------------------
-|-------------------------------------------------------------
-|-------------------------------------------------------------
           Bright    are   the  stars     that   shine


Guitarra1: G#m                          Dm
Guitarra2: Am                            G

Guitarra3:
-|----------9--------------9------------9-----------9----------
-|------10-----10------10-----10-----9-----9-----9-----9-------
-|--11-------------11-------------9-----------9----------------
-|-------------------------------------------------------------
-|-------------------------------------------------------------
-|-------------------------------------------------------------
                Dark       is      the                 sky


Guitarra1: G#m                          Dm
Guitarra2: Am                            G

Guitarra3:
-|----------9--------------9------------9-----------9----------
-|------10-----10------10-----10-----9-----9-----9-----9-------
-|--11-------------11-------------9-----------9----------------
-|-------------------------------------------------------------
-|-------------------------------------------------------------
-|-------------------------------------------------------------
              I know         this love    of     mine


Guitarra1:   Bb                      C7                    
Guitarra2:    C                       D 

Guitarra3:
-|---------9-------------9--------------11---------------------
-|-----10-----10-----10-----10------10------10-----------------
-|--9-------------9-------------11-----------------------------
-|-------------------------------------------------------------
-|-------------------------------------------------------------
-|-------------------------------------------------------------
                  Will          never             die


Guitarra1:   F  
Guitarra2:   Em

Guitarra3:
-|----------11------------9-----------9-----------9------------
-|------10------10-----9-----9-----9-----9-----9-----9---------
-|--11--------------9-----------9-----------9-----------9------
-|-------------------------------------------------------------
-|-------------------------------------------------------------
-|-------------------------------------------------------------
             And   I   love her


?Fin:
Guitarra 1:
         Gm             F             Gm            D
Guitarra 2: 
        FMaj7         Cmaj7          FMaj7         Asus2 

Guitarra 3:
-|----------------------------------------------------------------
-|----------------------------------------------------------------
-|----------------------------------------------------------------
-|----------------------------------------------------------------
-|-----7--6--4---------7--6--4---------7--6--4-------7--6--5------
-|--7---------------7---------------7-------------7---------------


 

Fuente: Lacuerda