a b c d e f g h i j k l m n o p q r s t u v w x y z 0-9

And I Love Her

The Beatles

			
---------------------------------------------------------
---------------------------------------------------------
---------------------------------------------------------
---------------------------------------------------------
--7-6--4-------7-6--4-----7-6--4--------7-6--4-----------
-7------------7----------7-------------7-----------------

---------------------------------------------------------
---------------------------------------------------------
---------------7--5--8------------------7--7--5----------
--3---5---6------------------3---5---6-------------------
---------------------------------------------------------
---------------------------------------------------------

---------------------------------------------------------
---------------------------------------------------------
----------7--5--8----7--5--------------------------------
--3--5--6------------------6--3------------------3-------
--------------------------------------5---3---5----------
---------------------------------------------------------


---------------------------------------------------------
---------------------------------------------------------
---------------------------------------------------------
---------------------------------------------------------
-5--3------------------------------------------------------
------5--3-----1-1---3----------------------------------------

Fuente: tusacordes.com