a b c d e f g h i j k l m n o p q r s t u v w x y z 0-9

And I Love Her (solo)

The Beatles

			
 


 mm st solito sta facil ,.  pro hay q hacerlo lento pra  q suene lo mas chdo posiblee ,. 

1---------------------------------------------------
2---------------------------------------------------
3--------------9-7-7/10----------------9-9/7---------
4----5--7-8------------------5--7-8-----------------
5---------------------------------------------------
6---------------------------------------------------

1---------------------------------------------------
2---------------------------------------------------
3-------------9-7-7/10-------11-7-------------------
4---5--7-8-------------------------8-7--7/5---------
5---------------------------------------------------
6---------------------------------------------------

1---------------------------------------------------
2---------------------------------------------------
3---------------------------------------------------
4------------7---------------------------------------
5---5--3--5--------------------------------------------
6--------------------------5--3--1-1/3--------------------

Fuente: tusacordes.com