a b c d e f g h i j k l m n o p q r s t u v w x y z 0-9

All My Loving

The Beatles

			





   ESTE ES EL SOLO DE LA CANCION                                     
     
E -----------------------5-------9---7--5--4--------7--5--4--2--
B --------------------------5---10------------5--5-------------2
G -----------------------6-------9---9--6--4--------9--6--4--2--
D --------------------------7----------------------------------
A --2----------------------------------------------------------
E -----0--2--4--5-------------------------------------------------


E -9-----9------0---------------------
B ----10---10---0---------------------
G -9----------------01--01--------
D -----------------------------2------
A ------------------------------------
E ------------------------------------

Fuente: tusacordes.com