a b c d e f g h i j k l m n o p q r s t u v w x y z 0-9

Act Naturally

The Beatles

			
*24/11/2010
*por smashjes
*email o msn por cualquier duda o comentario: smashjes@hotmail.com
Act naturally


INTRO
 1:
e--------------------------------------------------------------------------------------------------------------------------------------------------------------
B-------------------------------------------7-----7-----------------7-----------8---------8-8-----8------------------------------------------------------
G-------------------------7-----------5---7----------7---9--------------------7h9------9-9-----9p7--------------------------------------------------
D----5----4----2---0-------5h7-------- 7--------------------------------------------------------------------9-----5------------------------------5----
A---------------------------------------------------------------------------------------------------------------------------------------------7p5-----------
E --------------------------------------------------------------------------------------------------------------------------------5h9----------------------

They're gonna put me in the movies 
acorde  C 
They're gonna make a big star out of me 

2:

e----------------------------------------------------------------------------
B---------------------------------------------------------------------------
G---------------------------------------------------------------------------
D---------------------------------------------------------------------------
A-------------------------0---2-----5---5----2---0----------------------
E ------0----3----4----------------------------------------4---5--------

We'll make a film about a man that's sad and lonely 

3:
e------------------------------------------------------------------
B------------------------------------------------------------------
G------------------------------------------------------------------
D-------5-------------5------5---5--5--------------5-----------
A-----------5----7------------------------5----7-----------------
E------------------------------------------------------------------

And all I gotta so is act naturally 
4:
e----------------------------------------------------
B----------------------------------------------------
G-------------9----7--------------------------------
D----7h9---------------9-------5------------------
A----------------------------------------------------
E----------------------------------------------------
Well, I'll bet you I'm gonna be a big star 
3:
e------------------------------------------------------------------
B------------------------------------------------------------------
G------------------------------------------------------------------
D-------5-------------5------5---5--5--------------5-----------
A-----------5----7------------------------5----7-----------------
E------------------------------------------------------------------
Might win an Oscar you can never tell
3:
e------------------------------------------------------------------
B------------------------------------------------------------------
G------------------------------------------------------------------
D-------5-------------5------5---5--5--------------5-----------
A-----------5----7------------------------5----7-----------------
E------------------------------------------------------------------
The movies gonna make me a big star
5:
e-----------------------------------------------------------------------
B-----------------------------------------------------------------------
G-----------------------------------------------------------------------
D-----------------------------------------7----------------------------
A------------5-----5----5------6---6- -0---------------------------
E ----3h5------5----5------6---6-----7---------------------------

'cos I can plat the part so wel
6:
e-------------------------------------------------------------------------
B-------------------------------------------------------------------------
G-------------------------------------------------------------------------
D----------------------------------------------------7----5--------------
A-------------------12-------10----9-----7------0-----0---------------
E --------10h12-------10------9-----7---------7-----5----------------

 
Well I hope you come and see me in the movies
3 :
e------------------------------------------------------------------
B------------------------------------------------------------------
G------------------------------------------------------------------
D-------5-------------5------5---5--5--------------5-----------
A-----------5----7------------------------5----7-----------------
E------------------------------------------------------------------
Then I know that you will plainly see
2:
e----------------------------------------------------------------------------
B---------------------------------------------------------------------------
G---------------------------------------------------------------------------
D---------------------------------------------------------------------------
A-------------------------0---2-----5---5----2---0----------------------
E ------0----3----4----------------------------------------4---5--------
The biggest fool that ever hit the big time
3:
e------------------------------------------------------------------
B------------------------------------------------------------------
G------------------------------------------------------------------
D-------5-------------5------5---5--5--------------5-----------
A-----------5----7------------------------5----7-----------------
E------------------------------------------------------------------
And all I gotta do is act naturally
4:
e----------------------------------------------------
B----------------------------------------------------
G-------------9----7--------------------------------
D----7h9---------------9-------5------------------
A----------------------------------------------------
E----------------------------------------------------
7:
e-------------------------------------------------------------------------------------------------------------------------
B-------------------------------------------------------------------------------------------------------------------------
G------------------------------------------------------------------------------------------------------------------------
D---------------------------------------------------------------------5-5----------------------------------------5-----
A--------------------------5------------3--------5-----------3------------5up-------------------------7p5--------
E------5---4---2---0---------5h7---------0-------5h7-------------------------7up---5---7h9-------------------
We'll make the scene about a man that's sad and lonely
3:
e------------------------------------------------------------------
B------------------------------------------------------------------
G------------------------------------------------------------------
D-------5-------------5------5---5--5--------------5-----------
A-----------5----7------------------------5----7-----------------
E------------------------------------------------------------------
And beggin down upon his bended knee 
2:
e----------------------------------------------------------------------------
B---------------------------------------------------------------------------
G---------------------------------------------------------------------------
D---------------------------------------------------------------------------
A-------------------------0---2-----5---5----2---0----------------------
E ------0----3----4----------------------------------------4---5--------
I'll play the part but I won't need rehearsal 
3:
e------------------------------------------------------------------
B------------------------------------------------------------------
G------------------------------------------------------------------
D-------5-------------5------5---5--5--------------5-----------
A-----------5----7------------------------5----7-----------------
E------------------------------------------------------------------
All I gotta do is act naturally
4:
e----------------------------------------------------
B----------------------------------------------------
G-------------9----7--------------------------------
D----7h9---------------9-------5------------------
A----------------------------------------------------
E----------------------------------------------------

Well, I'll bet you I'm gonna be a big star
3:
e------------------------------------------------------------------
B------------------------------------------------------------------
G------------------------------------------------------------------
D-------5-------------5------5---5--5--------------5-----------
A-----------5----7------------------------5----7-----------------
E------------------------------------------------------------------

Might win an Oscar you can never tell
3:
e------------------------------------------------------------------
B------------------------------------------------------------------
G------------------------------------------------------------------
D-------5-------------5------5---5--5--------------5-----------
A-----------5----7------------------------5----7-----------------
E------------------------------------------------------------------
The movies gonna make me a big star
5 
e-------------------------------------------------
B------------------------------------------------
G------------------------------------------------
D-----------------------------------------7-------
A------------5-----5----5------6---6- -0-------
E---3h5------5----5------6---6-------7--------
'cos I can plat the part so well 
6
e-------------------------------------------------------------------------
B-------------------------------------------------------------------------
G-------------------------------------------------------------------------
D----------------------------------------------------7----5--------------
A-------------------12-------10----9-----7------0-----0---------------
E --------10h12-------10------9-----7---------7-----5----------------
Well I hope you come and see me in the movies
3:
e--------------------------------------------------------------------------
B-------------------------------------------------------------------------
G------------------------------------------------------------------------
D-------5-------------5------5---5--5--------------5------------------
A-----------5----7------------------------5----7-------------------------
E -------------------------------------------------------------------------
Then I know that you will plainly see
2:

e----------------------------------------------------------------------------
B---------------------------------------------------------------------------
G---------------------------------------------------------------------------
D---------------------------------------------------------------------------
A-------------------------0---2-----5---5----2---0----------------------
E ------0----3----4----------------------------------------4---5--------
 
The biggest fool that ever hit the big time
3:
e----------------------------------------------------------------------------------------------
B--------------------------------------------------------------------------------------------
G-------------------------------------------------------------------------------------------
D-------5-------------5------5---5--5--------------5-------------------------------------
A-----------5----7------------------------5----7-------------------------------------------
E ------------------------------------------------------------------------------------------ 
And all I gotta do is act naturally
4:
e---------------------------------------------------
B----------------------------------------------------
G-------------9----7--------------------------------
D----7h9---------------9-------5------------------
A----------------------------------------------------
E----------------------------------------------------
8
final
e-------------------------------------------------------------------------------------------------------------------------------------------
B-------------------------------------------7-----7-----------------7-----------8---------8-8-----8-------------------------------------
G-------------------------7-----------5---7----------7---9--------------------7h9------9-9-----9p7----------------------------------
D----5----4----2---0-------5h7-------- 7--------------------------------------------------------------------9-----5-------------5----
A---------------------------------------------------------------------------------------------------------------------------------------------
E ---------------------------------------------------------------------------------------------------------------------------------------------

Fuente: Tusacordes