a b c d e f g h i j k l m n o p q r s t u v w x y z 0-9

A Hard Day´s Night

The Beatles

			
Este es el solo de una cancion llamada A Hard's Days Night de The Beatles Alguna duda favor de contactarme

E-----------------------
B-----------------------
G-----------------------
D-----------------------
A-------------3---5-----
E-----3-3-3-6---6-------

En esta parte tienen que hacerle rapido para que suene bien
E------------------------------
B------------------------------
G------------------------------
D---------3-----3-----3--------
A-----3-5---3-5---3-5---3------
E-------------------------5-6-3

E------------------------------
B------------------------------
G------------------------------
D------------------------------
A-------------3---5------------
E-----3-3-3-6---6--------------

En esta parte tambien tienen que hacerlo rapido para que suene bien
E------------------------------
B------------------------------
G------------------------------
D---------3-----3-----3--------
A-----3-5---3-5---3-5---3------
E-------------------------5-6-3

Fuente: Tusacordes