a b c d e f g h i j k l m n o p q r s t u v w x y z 0-9

A Day In The Life

The Beatles

			
e]----------------------------------------------------------------[
b]--0-3-0-5--0-3-5-0-----0-1-0-----------0-0---0-3-3-5-0-3-5-0----[
g]---------------------0-------2-0-2------------------------------[
d]-------------------------------------2--------------------------[
a]----------------------------------------------------------------[
e]----------------------------------------------------------------[

e]----------------------------------------------------------------[
b]---0-1-0-------------0-1-0--------------------------------------[
g]-0-------2-0-0-----0-------2-0-0--------------------------------[
d]----------------------------------------------------------------[
a]----------------------------------------------------------------[
e]----------------------------------------------------------------[
                            letra:
I read the news today oh, boy
About a lucky man who made the grade
And though the news was rather sad
Well, I just had to laugh
I saw the photograph
He blew his mind out in a car
He didn't notice that the lights had changed
A crowd of people stood and stared
They'd seen his face before


después de eso viene:

I saw a film today oh, boy
The English army had just won the war
A crowd of people turned away
But I just had to look
con la misma tablatura

despues viene la parte de paul:
Woke up, got out of bed
dragged a comb across my head
Found my way downstairs and drank a cup
and looking up, I noticed I was late
Found my coat and grabbed my hat
Made the bus in seconds flat
Found my way upstairs and had a smoke
Somebody spoke and I went into a dream
ahhhhhhhhhhh

y se repite la parte de john con la misma tablatura.

Fuente: Tusacordes