a b c d e f g h i j k l m n o p q r s t u v w x y z 0-9

Se Sabio Hijo Mio 89

Testigos De Jehova

			
Es con el capo en el 4 trase. 
Bueno no soy tan bueno haciendo tabs...que digamos pero pongo mi granito de arena para poder tocar en esos momentos especiales... saludos hnos...



--0-|-0-------0---|-3---1---0---|------------------------
----|-----3-------|-------------|-3-----1-1-3------------
----|---0---0---0-|---0---0---0-|---0---0-0-0------------
----|-------------|-------------|------------------------
----|-3---3---3---|-3---3---3---|------------------------
----|-------------|-------------|-3-------3-3------------
C                                 G



-0--------3---|-------------|-----0-------|---------------
--------------|-1---0---1---|-3-------1---|-0-------------
---0--0-----0-|---2---2---2-|---2---2---2-|-2-----2-2-2---
--------------|-------------|-------------|-------3-------
-3--------3---|-0---0---0---|-0---0---0---|---3---3---3---
--------------|-------------|-------------|---------------
C               Am                          F



-----------|-----------|-----------|---------------------
-1-----1---|-1---0--1--|-1---0--1--|-1-----1-3-0----------
-2-----2---|-2---2--2--|-2---2--2--|-2--------------------
-----------|-----------|-----------|-----0---0------------
--3--3---3-|-0---------|-0---------|---3------------------
-----------|-----------|-----------|-0--------------------
   Dm7



-------------|-0---------0-|-0--------0-|-0------------0---
-----------1-|-1-----3---1-|-1-----3----|-1-------3--3-----
-0---------0-|-------0-----|------------|------------0-----
------0------|----2--------|----2--2----|-3-----3----------
-2------2--3-|-3-----3-----|-3--------3-|----3-------3-----
----3--------|-------------|------------|-----------------
E7      C                      Em          F7



-1-----------|--------0-1-3-||-3-------|---0-1-3-----------
-1---------1-|-1--0---------||-1-----3-|-------------------
-2-------2---|-2------------||-0-------|-0-----------------
-----0-3-----|-0------------||---2-----|------------------
-------------|--------------||-3---3---|-------------------
-------------|--------3-----||---------|-3-----------------
Dm7            G7              C



-3--------|--------|-3-----1-1-0-|-1------5-|--------------
-1----1---|-1----1-|-1-----------|-1--------|-3------------
-2--------|--------|-2-----------|-2--------|--------------
-3-3--3-0-|-2------|-3---3-------|-3---3----|-0----0-------
----------|--------|---3---------|---3----0-|----0---3-----
----------|---3----|-------------|----------|--------------
 F     C               F              F        Dm


-----------|-1---0---|------0-----|------------------------
-3------3--|-------2-|-3--------0-|-3-----1----------------
-----------|---------|------------|------------------------
---0-3-----|-0-0-0---|---0--0-----|-2--2--2----------------
-0---------|---------|-2----------|----------0-------------
-----------|---------|------------|------------------------
Dm                       E7            AmFuente: Tus acordes