a b c d e f g h i j k l m n o p q r s t u v w x y z 0-9

Banderitas Y Globos

Sumo

			
G-7------------7------------------    
D--7--9-7-------7--9-7-9-11-------
A--------7-9-9--------------9-9---
E---------------------------------



G--------------------------------------------------------------
D--------------------------------------------------------------
A-12-12-11-11-10-10-9-9-8-8-7-7-6-6-5-5-4-4-3-3-2-2-1-1-0-0-0--
E--------------------------------------------------------------


G---------------------------------------------
D---------------------------------------------  
A-5-5-5-5-5-5-5-5-5-5-5-5-5-5-5-5-5-5-5-5-5-5- 
E---------------------------------------------  
                                                  
despues hace varias veces:
G--------------------------------
D--------------------------------  
A------------------------------5-   
E-5-5-5-7-8-7-5--5-5-5-7-7-8-8---

Fuente: tusacordes.com