a b c d e f g h i j k l m n o p q r s t u v w x y z 0-9

Zoom

Soda Stereo

			
E -5-9-5-5-10-9-5-9-|-5-9-5-5-10-9-5-9-|-5-9-5-5-10-9-5-9-|-5-9-5-5-10
B ------------------|------------------|------------------|-----------
G ------------------|------------------|------------------|-----------
D ------------------|------------------|------------------|-----------
A ------------------|------------------|------------------|-----------
E ------------------|------------------|------------------|-----------

E -9-5-9-|-5-9-5-5-10-9-5-9-|-5-9-5-5-10-9-5-9-|-5-9-5-5-10-9-5-9-|-5-
B -------|------------------|------------------|------------------|---
G -------|------------------|------------------|------------------|---
D -------|------------------|------------------|------------------|---
A -------|------------------|------------------|------------------|---
E -------|------------------|------------------|------------------|---

E 9-5-5-10-9-5-9-|-5-9-5-5-10-9-5-9-|-5-9-5-5-10-9-5-9-|------|------|
B ---------------|------------------|------------------|------|------|
G ---------------|------------------|------------------|------|------|
D ---------------|------------------|------------------|------|------|
A ---------------|------------------|------------------|------|------|
E ---------------|------------------|------------------|------|------|

E ------|------|------|------|------|------|------|------|------|-----
B ------|------|------|------|------|------|------|------|------|-----
G ------|------|------|------|------|------|------|------|------|-----
D ------|------|------|------|------|------|------|------|------|-----
A ------|------|------|------|------|------|------|------|------|-----
E ------|------|------|------|------|------|------|------|------|-----

E -|------|------|------|------|-5-9-5-5-10-9-5-9-|-5-9-5-5-10-9-5-9-|
B -|------|------|------|------|------------------|------------------|
G -|------|------|------|------|------------------|------------------|
D -|------|------|------|------|------------------|------------------|
A -|------|------|------|------|------------------|------------------|
E -|------|------|------|------|------------------|------------------|

E -5-9-5-5-10-9-5-9-|-5-9-5-5-10-9-5-9-|-5-9-5-5-10-9-5-9-|-5-9-5-5-10
B ------------------|------------------|------------------|-----------
G ------------------|------------------|------------------|-----------
D ------------------|------------------|------------------|-----------
A ------------------|------------------|------------------|-----------
E ------------------|------------------|------------------|-----------

E -9-5-9-|-5-9-5-5-10-9-5-9-|-5-9-5-5-10-9-5-9-|-5-9-5-5-10-9-5-9-|-5-
B -------|------------------|------------------|------------------|---
G -------|------------------|------------------|------------------|---
D -------|------------------|------------------|------------------|---
A -------|------------------|------------------|------------------|---
E -------|------------------|------------------|------------------|---

E 9-5-5-10-9-5-9-|-5-9-5-5-10-9-5-9-|-5-9-5-5-10-9-5-9-|------|-5-9-5-
B ---------------|------------------|------------------|------|-------
G ---------------|------------------|------------------|------|-------
D ---------------|------------------|------------------|------|-------
A ---------------|------------------|------------------|------|-------
E ---------------|------------------|------------------|------|-------

E 5-10-9-5-9-|-5-9-5-5-10-9-5-9-|-5-9-5-5-10-9-5-9-|-5-9-5-5-10-9-5-9-
B -----------|------------------|------------------|------------------
G -----------|------------------|------------------|------------------
D -----------|------------------|------------------|------------------
A -----------|------------------|------------------|------------------
E -----------|------------------|------------------|------------------

E |-5-9-5-5-10-9-5-9-|------|------|------|------|-5-9-5-5-10-9-5-9-|-
B |------------------|------|------|------|------|------------------|-
G |------------------|------|------|------|------|------------------|-
D |------------------|------|------|------|------|------------------|-
A |------------------|------|------|------|------|------------------|-
E |------------------|------|------|------|------|------------------|-

E 5-9-5-5-10-9-5-9-|-5-9-5-5-10-9-5-9-|-5-9-5-5-10-9-5-9-|-5-9-5-5-10-
B -----------------|------------------|------------------|------------
G -----------------|------------------|------------------|------------
D -----------------|------------------|------------------|------------
A -----------------|------------------|------------------|------------
E -----------------|------------------|------------------|------------

E 9-5-9-|-5-9-5-5-10-9-5-9-|-5-9-5-5-10-9-5-9-|-5-9-5-5-10-9-5-9-|-5--
B ------|------------------|------------------|------------------|-10-
G ------|------------------|------------------|------------------|----
D ------|------------------|------------------|------------------|----
A ------|------------------|------------------|------------------|----
E ------|------------------|------------------|------------------|----

E 9--5--5--10-9--5--9--|-5-9-5-5-10-9-5-9-|-5--9--5--5--10-9--5--9--|-
B 14-10-10-15-14-10-14-|------------------|-10-14-10-10-15-14-10-14-|-
G ---------------------|------------------|-14-18-14-14-19-18-14-18-|-
D ---------------------|------------------|-19----19-19-------19----|-
A ---------------------|------------------|-------------------------|-
E ---------------------|------------------|-------------------------|-

E 5-9-5-5-10-9-5-9-|-5-9-5-5-10-9-5-9-|-5-9-5-5-10-9-5-9-|-5-9-5-5-10-
B -----------------|------------------|------------------|------------
G -----------------|------------------|------------------|------------
D -----------------|------------------|------------------|------------
A -----------------|------------------|------------------|------------
E -----------------|------------------|------------------|------------

E 9-5-9-|-5-9-5-5-10-9-5-9-|-5-9-5-5-10-9-5-9-|-5-9-5-5-10-9-5-9-|-5-9
B ------|------------------|------------------|------------------|----
G ------|------------------|------------------|------------------|----
D ------|------------------|------------------|------------------|----
A ------|------------------|------------------|------------------|----
E ------|------------------|------------------|------------------|----

E -5-5-10-9-5-9-|-5-9-5-5-10-9-5-9-|-5-9-5-5-10-9-5-9-|-5-9-5-5-10-9-5
B --------------|------------------|------------------|---------------
G --------------|------------------|------------------|---------------
D --------------|------------------|------------------|---------------
A --------------|------------------|------------------|---------------
E --------------|------------------|------------------|---------------

E -9-|-5-9-5-5-10-9-5-9-|-5-9-5-5-10-9-5-9-|-5-9-5-5-10-9-5-9-|-5-9-5-
B ---|------------------|------------------|------------------|-------
G ---|------------------|------------------|------------------|-------
D ---|------------------|------------------|------------------|-------
A ---|------------------|------------------|------------------|-------
E ---|------------------|------------------|------------------|-------

E 5-10-9-5-9-|-5-9-5-5-10-9-5-9-|-5-9-5-5-10-9-5-9-|-5-9-5-5-10-9-5-9-
B -----------|------------------|------------------|------------------
G -----------|------------------|------------------|------------------
D -----------|------------------|------------------|------------------
A -----------|------------------|------------------|------------------
E -----------|------------------|------------------|------------------

E |
B |
G |
D |
A |
E |Fuente: Tus acordes