a b c d e f g h i j k l m n o p q r s t u v w x y z 0-9

Un Misil En Mi Placard

Soda Stereo

			
SODA STEREO ? UN MISIL EN MI PLACARD ORIGINAL


INTRO: G#m ? A ? C#m ? E

ESTROFA 1

G#m         A           C#m
   Refugiados sobre el diván?
     E
Buscándonos
G#m      A                 C#m
   Agitados por nuestras formas?
      E
Gustándonos.
B                     A
Algo ocurrió, una extraña sensación,
        G#m         A
un presentimiento.
B                    A
Tuve que dejar de hacer el amor
  G#m        F#m
en el momento.


ESTROFA 2

G#m        A          C#m
   Fui en busca de un abrigo?
    E
Hacía frío
G#m       A         C#m
   Encendí un cigarrillo?
      E
Tenía miedo; y ahí lo vi:


ESTRIBILLO

B        A            G#m
   Un misil en mi placard?
    A
En mi placard
    B
Un modelo para armar,
 A                    F#m    E
pero nunca para desarmar.

SOLO 1 Tocar 2 veces

|-----------------|-----0-0-------0--|
|-7-7-7-----------|---------------0----|
|-8-----9---8---6-|-6---------6------|
|-9---------9---7-|-7-------7--------|
|-----------------|--------------------|
|-----------------|--------------------|

|-----------------|-----0-0-------0---||
|-5-5-5-5---4-----|---------------0-----||
|-6---6-6---4---2-|-2---------6-------||
|-6-------------4-|-4-------7---------||
|---------------4-|-4-----------------||
|-----------------|---------------------||


ESTROFA 3

G#m      A     C#m
   Te miré tristemente?
E
Tristemente
G#m            A           C#m
   No hay más tiempo que perder?
 E
Sonreíste
E
Estaba ahí?

ESTRIBILLO

B        A            G#m
   Un misil en mi placard?
    A
En mi placard
    B
Un modelo para armar,
 A                    F#m    E
pero nunca para desarmar.


SOLO 1

|-----------------|-----0-0-------0--|
|-7-7-7-----------|---------------0----|
|-8-----9---8---6-|-6---------6------|
|-9---------9---7-|-7-------7--------|
|-----------------|--------------------|
|-----------------|--------------------|

|-----------------|-----0-0-------0---||
|-5-5-5-5---4-----|---------------0-----||
|-6---6-6---4---2-|-2---------6-------||
|-6-------------4-|-4-------7---------||
|---------------4-|-4-----------------||
|-----------------|---------------------||

     B      A9
Aquí también?
    G#m               F#m
¿O creías que estabas lejos?
     B      A9 ? G#m ? F#m
Aquí también?
     B      A9 ? G#m ? F#m
Aquí también.


SOLO 2 El final

|-----12-12s11--12-12s11--------------|
|----------------------------12-----------|
|-------------------------------11-11s9-|
|-----------------------------------------|
|-----------------------------------------|
|-----------------------------------------|

|---------------7s9-|-9---9---9---9--|
|-------------------|-------------------------|
|-8---------8h9-----|-------------------------|
|-------------------|-------------------------|
|-------------------|-------------------------|
|-------------------|-------------------------|

|-7----------------|---------------------|
|-----------10---9-|-9-7-7-------7---|
|------------------|-----------9-8-9-----|
|------------------|-------------------9-|
|------------------|---------------------|
|------------------|---------------------|

|------------------------------------|
|------------------------------------|
|-----------------------8h9-8----8h9-|
|-9--------------9h11-------11-----|
|-------------9h11-------------------|
|-------11h12------------------------|

|---------------------------------------------|
|------------------------12p-10-12---------12p|
|-11---11s13-13-13-----------13-13----|
|-----------------|---------------------------|
|-----------------|---------------------------|
|-----------------|---------------------------|

|----------------------------------------|------------------------|
|-10-12---------12p10-12---------12p10---|-10---------4S=======|
|-------13-13----------13-13---------|------------------------|
|----------------------------------------|------------------------|
|----------------------------------------|------------------------|
|----------------------------------------|------------------------|

|--------------------------|-------------------------|
|-12---------12s14-14----|-------------------------|
|-----------------------14-|-14---------14------|
|--------------------------|-------------------------|
|--------------------------|-------------------------|
|--------------------------|-------------------------|

|-----------------------------|--------------------------|
|-----------------------------|--------------------------|
|-/13-13-13-13---/11-11-/11-|-11-9-9---9---9S==|
|-----------------------------|--------------------------|
|-----------------------------|--------------------------|
|-----------------------------|--------------------------|

|---------------------|-----------------------|
|---------------------|-----------------------|
|-4---------4s6-6---|-----------------------|
|-------------------7-|-7---------7------|
|---------------------|-----------------------|
|---------------------|-----------------------|

|----------------------|-----------------------||
|----------------------|-----------------------||
|----------------------|-----------------------||
|-/6-6-6-6---4-4-2s4-|-4-2-2---2-------||
|----------------------|-----------------------||
|----------------------|-----------------------||

E                 F#m
  Un misil en mi placard?
E                 F#m
  Un misil en mi placard?


ACORDES
=======

   G#m    A    C#m    E     B    F#m   A9
e|--4-----5-----4-----7-----7-----2-----5---|
B|--4-----5-----5-----9-----7-----2-----5---|
G|--4-----6-----6-----9-----8-----2-----7---|
D|--6-----7-----6-----9-----9-----4-----7---|
A|--6-----7-----4-----7-----9-----4-----5---|
E|--4-----X-----X-----X-----X-----2-----X---|


Agradezco mucho al amigo Santiago López Atahualpa, quién condescendió amablemente a dejarme usar sus tabs. para esta humilde versión.
No me queda más que desearles que disfruten de este genial éxito de Soda.
Saludos.

Fuente: tusacordes.com