a b c d e f g h i j k l m n o p q r s t u v w x y z 0-9

Un Misil En Mi Placard

Soda Stereo

			
VERSIÓN UNPLUGGED
 NUEVA CORRECCIÓN


Nosotros consideramos que los acordes presentados aquí son 
los mismos de la canción, los hemos llamado así por la 
similitud en sonoridad con los normales.

Rasgado:
2 Abajo 1 arriba 1 abajo 1 arriba 1 abajo 1 abajo 1 arriba, y se cambia la nota,
en algunas partes de la canción varía pero eso es según el gusto de ustedes.

Intro:
A9/F# A7/4 A6+/9 Em7+ se repite 3 veces, A9/F# A7/4 Bm 6ta al aire
  

a)
                
A9/F#*    A7/4*          A6+/9*    Em7+*
   Refugiados sobre el diván 
A9/F#*   A7/4*             A6+/9*   Em7+* 
   Agitados por nuestras formas
   A9/F#*               A7/4*
   Algo ocurrió, una extraña sensación 
          A6+/9*       Em7+*
   Un presentimiento.
   A9/F#*               A7/4*          Bm*        6ta al aire
   Tuve que dejar de hacer el amor, en el momento

A9/7*      A7/4*   A6+/9*     Em7+*  
   Fui en busca de un abrigo
A9/7*    A7/4* A6+/9*   Em7+*
   Encendí un cigarrillo
            

b) 
            A
   Y ahí lo vi

         G             F#m
   Un misil en mi placard
   G
   Mi placard
         A                     G            Bm    6ta al aire
   Un modelo para armar, pero nunca para desarmar 


Fraseo:

6-7---7---------------------------------------------
5--5---5--------------------------------------------
4---4---4---7---------------------------------------
3--------4-4-4s7-----7-----------4------------------
2---------------7-5-5-5s7-7-7-7-7--7-----7----------
1---------------------------------5-5-7-5-5s7-7-9-5-  Fm7#  6ta al aire


a)
 
   Te mire tristemente

   No hay mas tiempo que perder


b)

   Estaba ahí

   Un misil en mi placard

   mi placard
         
   Un modelo para armar, pero nunca para desarmar

El rasgado cambia.

c)

                  A9* B4* A9* G6   
Aquí también,
      B4*         A4* G6  
       o creías que estabas lejos,
    A9* B4* A9* G6
también
     B4*          A4* 
O creías que estabas lejos 

       D9 Em7 se repite varias veces


Acordes confusos:

 A9/F#*  A7/4* A6+/9* Em7+* Fm7#*  A9*  B4*  G6  D9 Em7
6-*------*------*-------*-----*-----*----*----*---*---*
5-9------7------9-------7-----9-----7----9----5---0---2
4-7------5------7-------5-----11----7----9----5---0---2
3-9------7------6-------4-----9-----6----7----4---2---0
2-0------0------0-------0-----10----0----7----0---3---3
1-0------0------0-------0-----9-----0----0----0---0---0



Cualquier duda:
diego@gustavocerati.zzn.com
trova62@latinmail.com

Colaboración de:
Diego Noboa y Santiago Garcés
Quito ? Ecuador

Fuente original ATAME [www.atame.org]
Colaborador original: Diego Noboa y Santiago Garcés [diego@gustavocerati.zzn.com]

Fuente: tusacordes.com