a b c d e f g h i j k l m n o p q r s t u v w x y z 0-9

Un Misil En Mi Placard

Soda Stereo

			
Acordes
      E  A  D  g  b  e
A:   0  7  7  6  5  0
G:   0  5  5  4  3  0
?1:   x  4  4  2  2  x
Em7:  0  2  2  0  3  0
Bm:   7  9  9  7  7  7
?2:   x  9  9  7  7  x
F#m7: x  9  11 9 10  9

intro: A G ?1 Em7X3  A G Bmeste Bm un tiempo mas
A      G             ?1   Em7
Refugiados sobre el divan
agitados por nuestras formas
algo ocurrio una extraña sensacion,un presentimiento
A                G                    Bmun tiempo mas
tuve que dejar de hacer el amor en el momento.

A        G        ?1   Em7
Fui en busca de un abrigo
encendi un cigarrillo...

A
y ahi lo vi
      G           ?1  G
un misil en mi placard,mi placard
     A
un modelo para armar
      G           Bm
pero nunca para desarmar

SOLO

e:---------------------------------
b:---------------------------------
g:---------------------------------
D:-----------------------------4v-- X2
A:---------55.5----7---7.------
E:-77.7.7------------------------

e:-----------------------------------------5------7-5
b:----------7-6-55.5-77.7-77.-7---5-7--5-7--7-5
g:--4------------------------------------------------
D:-4-4--7-7------------------------------------------
A:---------------------------------------------------
E:---------------------------------------------------
TERMINA EN F#m7

A   G          ?1   Em7
Te mire tristemente
no hay mas tiempo que perder...
A
Estaba ahi
      G            ?1 G
un misil en mi placard,mi placard
     A
un modelo para armar
      G         Bm
pero nunca para desarmar

AX4G
?2X4AG
aqui tambieeeeeeeeeeeeeen
vos creias que estabas lejos
tambieeeeenn
vos creias que estabas lejos

FINAL:
Em7 F#m7

Fuente original ATAME [www.atame.org]
Colaborador original: mathias arduh [el_mejormathi@hotmail.com]

Fuente: tusacordes.com