a b c d e f g h i j k l m n o p q r s t u v w x y z 0-9

Un Misil En Mi Placard

Soda Stereo

			
VERSION UNPLUGGED:

intro:

G-----------------------------------------------
D----------------------------------------------- X 2
A-------------------------2-0-2-0-2-2-----------
E-2-0-2-0-2-2---0-0-0-0-0-------------0-0-0-0---

coro:

G-----------------------------------------------------
D-----------------------------------------------------X 1
A-----------------------------------------------------
E-5h0-5-0-5-0-5--3-0-3-0-3-3-0--2-0-2-0-0-2--3-0-0-3-3

G----------------------------------------------
D----------------------------------------------X 1
A-------------------------------2-0-2-0-2-0-2--
E-5h0-5-0-5-0-5--3-0-3-0-3-3-0-----------------

medio:

G-------------|-----------|--------------
D-------------|-2-0-2-0-2-|--------3-2-1- X 2
A-------------|-----------|-2-0-3--------
E-2-0-2-2-0-2-|-----------|--------------

G-----------------
D----------------- X 2
A-----------------
E-5-5-5-5--2-0-3--

final:

G--------------------
D-------------------- X 2
A-5-5-5-5--7-7-7-7---
E--------------------

Fuente original ATAME [www.atame.org]
Colaborador original: Julian Daniel [metalficha@hotmail.com]

Fuente: tusacordes.com