a b c d e f g h i j k l m n o p q r s t u v w x y z 0-9

Un Misil En Mi Placard (acustico)

Soda Stereo

			
Intro
00:00
F#m4/7     Em7     *F#m4/7     *Em x3 <--Nota:2

F#m4/7     Em7      Bm          Em  <--Nota:3





00:40
F#m4/7    Em7              *F#m4/7   *Em
    Refugiados sobre el divan

F#m4/7    Em7              *F#m4/7   *Em
    Agitados por nuestras formas

F#m4/7             Em7                    *F#m4/7     *Em
Algo ocurrio, una extraña sensacion, un presentimiento

F#m4/7              Em7            Bm          Em <--Nota: 3.2
Tuve que dejar de hacer el amor en el momento



01:20
F#m4/7      Em7    *F#m4/7    *Em
    Fui en busca de un abrigo

F#m4/7   Em7  *F#m4/7    *Em
    Encendi un cigarrillo




01:39
         Aadd9   G6             Fm     G6
Y ahi lo vi, un misil en mi placard, en mi placard


     Aadd9                 G6           Bm      Em
Un modelo para armar, pero nunca para desarmar




2:01
Solo <--Nota:4

    F#m4/7         Em7             *F#m4/7
e|-----------------------------------------
B|-----------------------------------------
G|-----------------------------------------
D|---------2---4--------2---4--9-9/7-7-----
A|--2/4-4---4-----2/4-4---4----------------
E|-----------------------------------------


                     *Em         F#m4/7                   Bm       Em

e|------------------------------------------------7--------7--
B|-----------------------------------7-10----7-10---10-----7--
G|-9--11-10-9/7---7-9/11-11-11-11--9-------9---------------7--
D|-------------9--------9--9--9-------------------------------
A|------------------------------------------------------------
E|------------------------------------------------------------






02:20
F#m4/7    Em7       *F#m4/7   *Em
    Te mire tristemente

F#m4/7          Em7         *F#m4/7   *Em
   No hay mas tiempo que perder


02:39
        Aadd9   G6            Fm      G6
Estaba ahi, un misil en mi placard, en mi placard

     Aadd9                G6         Bm      Em
Un modelo para armar, pero nunca para desarmar



03:00
  F#m4/7     Esus413  *Em x4

03:18

         F#m4/7     Esus413  *Em
Aqui tambien

     F#m4/7     Esus413  *Em
o creias que estabas lejos

    F#m4/7     Esus413  *Em
tambien

     F#m4/7     Esus413  *Em
o creias que estabas lejos


Outro
03:39
Dsus9     **Em7 x7

03:13
Dsus9     **Em7     Em <--Nota:3.3


Fuente: tusacordes.com