a b c d e f g h i j k l m n o p q r s t u v w x y z 0-9

Un Millón De Años Luz

Soda Stereo

			
La canción es facilísima en el bajo caso contrario a la guitarra
Sólo lleva estas dos partes, las cuales les será fácil ubicar.

Bueno, antes que nada hace un slide del bajo justo cuando va a comenzar el solo del inicio, al final de los teclados. Yo lo hago en la 4a cuerda desde el traste 15 hacia el 7.


PARTE UNO
En las parte del solo de la guitarra y en la parte de "No vuelvas..."

----------------------------------------------------|
----------------------------------------------------|
----------------------------------------------------|
--7-----7--------------7--5-----5--------------5----|

----------------------------------------------------|
----------------------------------------------------|
----------------------------------------------------|
--4-----4--------------4--2-----2--------------2----|


PARTE DOS
En las demás partes: "Del fuego vino...", "De las historias pasadas"

----------------------------------------------------|
----------------------------------------------------|
--2-----------2-----------5-----5--------------5----|
----------------------------------------------------|

--------------------------------------------------------------------------------
--------------------------------------------------------------------------------
--------------------------------------------------5-----------5-----------------
--3-----------3-----------------------------3-----------------------------------

--------------------|----------------------------------------------------|
--------------------|----------------------------------------------------|
------5-----5h-4----|--2-----------2-----------5-----5--------------5----|
--------------------|----------------------------------------------------|

----------------------------------------------------|
----------------------------------------------------|
----------------------------------------------------|
--3--------------------3--3-----5-----5-------------|

Esas dos serían las partes que lleva toda la canción. También en los teclados antes delo final hace un arreglo mientras está la batería entrando también... yo lo escucho algo así, pero de esto si no doy fe que esté correcto al 100

----------------------------------------------------|
----------------------------------------------------|
--------------2-----------2--------2--5--2--0-------|
----------------------------------------------------|

Fuente: Tusacordes