a b c d e f g h i j k l m n o p q r s t u v w x y z 0-9

Tratame Suavemente

Soda Stereo

			
Versión del Último Concierto

Armonizado en Re Mayor
Tempo 4/4

Efectos naturales:
b, bend, jalar la cuerda hacia arriba para subir el tono
/, slide, tocas la nota y deslizas tu dedo hacia la otra 9/7
   tocas en 9 y deslizas a 7
p, pull off, tocas una nota, luego sueltas hacia otra 9p7
   tocas en 9, sueltas hacia el 7
h, hammer on, tocas una nota, martillas hacia otra 7h9
   tocas en 7, martilleas al 9
~, vibrato, aplicas un bend de arriba hacia abajo
   para que la nota vibre

INTRODUCCIÓN:

|| ------10------10---10-|------10------10---10- ||
|| ---10------10---------|---10------10--------- ||
||O-7-------7-------7----|-9-------9-------9----O||
||O----------------------|----------------------O||
|| ----------------------|---------------------- ||
|| ----------------------|---------------------- ||X6

 VERSO 1:
  Se arpegian los acordes
  D         F#m       C           Bm   A
|-2----2--|-2----2--|-0----0--|---2-2--0-0-|
|-3---3---|-2---2---|-1---1---|---3-3--2-2-|
|-2--2----|-2--2----|-0--0----|---4-4--2-2-|
|-0-------|-4-------|-2-------|------------|
|---------|-4-------|-3-------|------------|
|---------|-2-------|---------|------------|

D                F#m              C
 Alguien me ha dicho, que la soledad
       Bm           A
 Se esconde tras tus ojos.

  D         F#m       C              Bm   A
|-2----2--|-2----2--|-0----0h20--|---2-2--0-0-|
|-3---3---|-2---2---|-1---1------|---3-3--2-2-|
|-2--2----|-2--2----|-0--0-------|---4-4--2-2-|
|-0-------|-4-------|-2----------|------------|
|---------|-4-------|-3----------|------------|
|---------|-2-------|------------|------------|

D           F#m              C
 Y que tu blusa adora sentimientos
    Bm     A
 Que respiras.

  D         F#m       C           Bm   A
|-2----2--|-2----2--|-0----0---|--2-2--0-0-|
|-3---3---|-2---2---|-1---1----|--3-3--2-2-|
|-2--2----|-2--2----|-0--0-----|--4-4--2-2-|
|-0-------|-4-------|-2--------|-----------|
|---------|-4-------|-3--------|-----------|
|---------|-2-------|----------|-----------|

D                  F#m                    C
 Tenéis que comprender, que no puse tus miedos
  Bm              A
 Dónde están guardados.


  D         F#m       C           Bm   A
|-2----2--|-2----2--|-0----0---|--2-2--0-0-|
|-3---3---|-2---2---|-1---1----|--3-3--2-2-|
|-2--2----|-2--2----|-0--0-----|--4-4--2-2-|
|-0-------|-4-------|-2--------|-----------|
|---------|-4-------|-3--------|-----------|
|---------|-2-------|----------|-----------|

D            F#m    C
 Y que no podré quitártelos,
          Bm          A
 Si al hacerlo me desgarras.

CORO 1:

  GIII    AV    F#m  E         GIII    AV   F#m
|-----3-------5-----2-----0------------3-------5----------------------|
|------3-------5-----2--0---0-----------3-------5---------------------|
|-2/4---4///6---6--2--2-------1----2/4---4///6---6--------------------|
|-------------------------------2-------------------------------------|
|-----------------------------------------------------0-2-2h4-2-0-----|
|---------------------------------------------------2-------------2p0-|

  G     A     C
|-3--|--0--|--3--|-0-----------------|
|-3--|--2--|--1--|---0-1---------1-0-|
|-0--|--2--|--0--|-------0-----0-----|
|-0--|--2--|--2--|-----------0-------|
|-2--|--0--|--3--|-------------------|
|-3--|-----|-----|-------------------|

GIII       AV               F#m     E
 No quiero soñar mil veces las mismas cosas
GIII        AV         F#m
 Ni contemplarlas sabiamente,
GIII           AV          C
 Quiero que me trates suavemente.

PUENTE:

    D5                F#5               C5
|| -----------------|-----------------|-----------------|
|| -----------------|-----------------|-----------------|
||O-----------------|-----------------|-----------------|
||O-7-7-7-7-7-7-7-7-|-----------------|-5-5-5-5-5-5-5-5-|
|| -5-5-5-5-5-5-5-5-|-4-4-4-4-4-4-4-4-|-3-3-3-3-3-3-3-3-|
|| -----------------|-2-2-2-2-2-2-2-2-|-----------------|

      B5      A5
|----------------- ||
|----------------- ||
|-----------------O||
|-----4-4-----2-2-O||
|-----2-2-----0-0- ||
|----------------- ||X2

 D5               F#5   C5                B5     A5
 Te comportaste acuerdo a lo que te dicta cada momento
 D5             F#5               C5           B5         A5
 Y esa inconstancia no es algo heróico, es más bien algo enfermo.

CORO 2:

  GIII    AV    F#m  E         GIII    AV   F#m
|-----3-------5-----2-----0------------3-------5----------------------|
|------3-------5-----2--0---0-----------3-------5---------------------|
|-2/4---4///6---6--2--2-------1----2/4---4///6---6--------------------|
|-------------------------------2-------------------------------------|
|-----------------------------------------------------0-2-2h4-2-0-----|
|---------------------------------------------------2-------------2p0-|

  GIII  AV    Bm7VII       Em7VII  Bm7VII       Em7VII
|-3---3-|-5---5-|----7-7--7-7-7--7-------|----7-7--7-7-7--7--10-10-|
|-3--3--|-5--5--|----7-7--7-7-7--8-------|----7-7--7-7-7--8--8--8--|
|-4-4---|-6-6---|----7-7--7-7-7--7-------|----7-7--7-7-7--7--------|
|-5-----|-7-----|----7-7--7-7-7--9-------|----7-7--7-7-7--9--------|
|-5-----|-7-----|----9-9--9-9-9--7-------|----9-9--9-9-9--7--------|
|-3-----|-5-----|-7--7-7--7-7-7----------|-7--7-7--7-7-7-----------|

     Bm7VII    Em7VII
|----7-7--7-7-7--7-|
|----7-7--7-7-7--8-|
|----7-7--7-7-7--7-|
|----7-7--7-7-7--9-|
|----9-9--9-9-9--7-|
|-7--7-7--7-7-7----|

GIII       AV               F#m     E
 No quiero soñar mil veces las mismas cosas
GIII        AV         F#m
 Ni contemplarlas sabiamente,
GIII           AV          Bm7VII Em7VII
 Quiero que me trates suavemente.


SOLO:

|-7---------------7-8-8-7------------|-------------------------------|
|---10-8--7/9-10----------10-8-------|-----10~~~----------------10~~~|
|------------------------------7/9b--|-9p7---------------------------|
|------------------------------------|----------9-7-6~~~6-6-7-9------|
|------------------------------------|-------------------------------|
|------------------------------------|-------------------------------|

|-------------------------|
|-------------------------|
|-------7-9b-7-9b-7-------|
|-6-7-9-------------9///2-|
|-------------------------|
|-------------------------|

VERSO 3:

  GIII    AV    F#m  E         GIII    AV   F#m
|-----3-------5-----2-----0-------------3-------5----------------------|
|------3-------5-----2--0----------------3-------5---------------------|
|-2/4---4///6---6--2--2-----7//-----2/4---4///6---6--------------------|
|---------------------------7//----------------------------------------|
|------------------------------------------------------0-2-2h4-2-0-----|
|----------------------------------------------------2-------------2p0-|

|----0----|
|---0-0---|
|--1---1--|
|-2-----2-|
|---------|
|---------|

GIII       AV               F#m     E
 No quiero soñar mil veces las mismas cosas
GIII        AV         F#m
 Ni contemplarlas sabiamente.

|| -----3---------5-------5--5-5-7--------- ||
|| ----3-3-------5-5------7--7-7-9----9---- ||
||O---4---4-----6---6-----7--7-7-9---9-9---O||
||O--5-----5---7-----7----7--7-7-9--9---9--O||
|| -5-------5-7-------7---5--5-5-7-7-----7- ||
|| ---------------------------------------- ||X2

GIII           AV          DV EVII
 Quiero que me trates suavemente.
GIII           AV          DV EVII
 Quiero que me trates suavemente.

|-----3------5---5-|
|----3-3-----5--5--|
|---4---4----6-6---|
|--5-----5---7-----|
|-5-------5--7-----|
|------------5-----|

GIII           AV
 Quiero que me trates

CORO FINAL:
                      ______     ____
                     |1,2,3     |4
|| ----7-7--7-7-7--7--9--- ||    |-7------|
|| ----7-7--7-7-7--8--10-- ||    |-7------|
||O----7-7--7-7-7--7--9---O||    |-7------|
||O----7-7--7-7-7--9--11--O||    |-7------|
|| ----9-9--9-9-9--7--9--- ||    |--------|
|| -7--7-7--7-7-7--------- ||X4|--------|

          Bm7VII Em7VII F#m7IX
 Suavemente
          Bm7VII Em7VII F#m7IX
 Suavemente
          Bm7VII Em7VII F#m7IX
 Suavemente
          Bm7VII
 Suavemente.

Fuente: Tusacordes