a b c d e f g h i j k l m n o p q r s t u v w x y z 0-9

Tratame Suavemente

Soda Stereo

			
Estos son TODOS los punteos de esta cancion en la ver. del ultimo concierto...

AL PRINCIPIO

e--------10-------10---------------10-------10-----------
B-----10-------10--------10-----10-------10--------10----
G--7--------7---------7------9---------9--------9-------- [BIS]
D--------------------------------------------------------
A--------------------------------------------------------
E--------------------------------------------------------


PUNTEO DE ENMEDIO

e---7--7--7--7--9-----------------
B---7--7--7--8--10----------------
G---7--7--7--7--9----------------- [BIS]
D---------------------------------
A---------------------------------
E---------------------------------

e--7----------------7-8-8-7-------------------------------------------
B-----10--8--7/9-10---------10-8------------10----------------10------
G---------------------------------7/9*--9-7---------------------------
D----------------------------------------------9-7-6--6-6-7-9---------
A---------------------------------------------------------------------
E---------------------------------------------------------------------

e-----------------------------------------------
B-----------------------------------------------
G-----------------------16----------------------
D-----------12-14-14/16----16-14-12-------------
A--11-12-14-------------------------12-14-------
E-----------------------------------------------


  Bueno, y eso es todo, obviamente al final tocas como tocaste el principio del punteo de enmedio...

chau

Fuente original ATAME [www.atame.org]
Colaborador original: El Matasanos [adachin@atlas.com.mx]

Fuente: tusacordes.com