a b c d e f g h i j k l m n o p q r s t u v w x y z 0-9

Tratame Suavemente

Soda Stereo

			
guitarra    intro...entra bataca y bajo
G----------|---------------------------------------------------------
D----------|-----4-----5-----4-----55-----4-----5--------4-----55--
A----------|--2-----3-----2-----3-------2-----3--------2-----3-------
E----------|----------------------------------------3----------------


Alguien me ha dicho...
G--------------------------------------------------------------------
D---------------5-------------------------5/75----------------------
A-5----------3-----5-5--------5------------------5-5-----------------
E---53-3~~------------5-5-------53-3~~------------5-5--------------

G--------------------------------------------------------------------
D---------------5----------------------------5-----------------------
A-5----------3------5-5-------5-----------3-----5-5------------------
E---53-3~~-------3----5-5-------53-3~~------------5-5--------------


...no quiero soņar...
G--------------------------------------------------------------------
D--------------------------------------------------------------------
A----5-----7-----9------------5-----7-----9--------------------------
E-3-----5-----7-----10~~---3-----5-----7-----10~~--------------------

G------------------
D------------------
A-----------3~~----
E---3---5----------


Te comportas de acuerdo...
G--------------------------------------------------------------------
D--------------------------------------------------------------------     X 2
A--5-5-5-5-5-5-5-5-----------------------------------------5-5-------
E--------------------9-9-9-9-9-9-9-9---8-8-8-8-8-8-8-8----------5-5--


G--------------------------------------------------------
D--------------------------------------------------------
A--------------------------------------------------------
E--3-3-3-3-3-3-3-3---5-5-5-5-5-5-5-5---7-7-7-7-7-7-7-7---

G----------------------------
D----------------------------
A----------------------------
E--10-10-10-10-10-10-10-10---

G---------------------------------------------------------
D---------------------------------------------------------
A---------------------------------------------------------
E--3-3-3-3-3-3-3-3---5-5-5-5-5-5-5-5---7-7-7-7-7-7-7-7----

G----------------------------
D----------------------------
A----------------------------
E--10~~--10--9--7--3---------

G-------------
D-------------
A----------5--
E--3---5------

G-------------
D-------------     X 4
A---------3~~-
E--5--5-------

G--------------------------------------------------------------------
D--------------------------------------------------------------------
A--5--3-----------5-----7-----------5------7------5------7-----------
E--------5--0--3-----5-----10---3-----5-------3-----5---------------


No quiero soņar...
G--------------------------------------------------------------------
D--------------------------------------------------------------------
A--------------------------------------------------------------------
E--3-3-3-3-3-3-3-3---5-5-5-5-5-5-5-5---7-7-7-7-7-7-7-7-7-------------

G----------------------------
D----------------------------
A----------------------------
E--10-10-10-10-10-10-10-10---

G--------------------------------------------------------------------
D--------------------------------------------------------------------
A--------------------------------------------------------------------
E--3-3-3-3-3-3-3-3---5-5-5-5-5-5-5-5---7-7-7-7-7-7-7-7-7-------------

G----------------------------
D----------------------------
A----------------------------
E--10~~--10--9--7--3---------

G-------------
D-------------
A----------5--
E--3---5------
G----------------------------------------
D----------------------------------------     X 2
A----------------------------------------
E--5-5-5-5-5-5-5-5---3-3-3-3-3-3-3-3~~---



final:
G----------------
D----------------     X  4
A-----5------7/--
E--3------5------

aportenle un feeling mas personal y el bajeo sera mas chingon...

Fuente original ATAME [www.atame.org]
Colaborador original: Christian Arvizu [weezerstereo@loquesea.com]

Fuente: tusacordes.com