a b c d e f g h i j k l m n o p q r s t u v w x y z 0-9

Te Para 3

Soda Stereo

			
este es el solo de 3para tres entero tiene unos arreglos que las trascripciones
 de los otros flacos tenian pifiadas, esten seguros de que va asonar por que lo saque   
  junto con un profesor de guitarra
E/-------19---15----------------19--15-------------------------------------
B/--15-------------19bu----15-----------19bu17bu_17-15-17bu--------
G/-------------------------------------------------------------------------
D/-------------------------------------------------------------------------
A/-------------------------------------------------------------------------
E/-------------------------------------------------------------------------

E/-------19---15----------------19--15-----------------------------------
B/--15-------------19BU----15-----------19bu---------------------
G/----------------------------------------------16_15_14------------------
D/-------------------------------------------------------17-14-------------
A/------------------------------------------------------------------------
E/------------------------------------------------------------------------
esta parte de aca arriba se puede hacer así tambien:
E/-------19---15----------------19--15-------------------------------------
B/--15-------------19BU----15--------19bu-17bu_17-15-17bu-------
G/----------------------------------------------------------------14bu-14-12-
D/------------------------------------------------------------------------------14
A/-------------------------------------------------------------------------
E/-------------------------------------------------------------------------

E/---------------------------------------------
B/---------------------------------------------
G/--14_16-14-16-14--12-9------------------------
D/--14_16-14-16-14--12-9-----------------------
A/---------------------------------------------
E/---------------------------------------------
la parte que se escucha despues es una guitarra con wahwah y shet que toca algo así:
E/-------------------------------------------------gutarra de cerati-12/14-12-------------
B/---------------------------------------------------------------------12/14-12----
G/--------12_14-14bu-14-12---12-----------------------------------------------------------
D/--12_14--------------------14--14-12------------------------------------------------
A/------------------------------------------12_14-------------------------------
E/-------------------------------------12_15------------------------------------

E/----------------7-10-9-7--7---------------------------------
B/--------------8---------10-8-10-7-8-7-----------------------
G/--5--7-6-5--9----------------------9-9-7-9--7---------------
D/---7--------------------------------------79-9--------------
A/------------------------------------------------------------
E/------------------------------------------------------------

E/-----------------------------------------------------------------
B/----8----10----12----11----10---10---12---14---12-----10----12----arpegio de
G/--------------------------------------------------------------------em y--12_11
D/-9----10----12----11----10---10---12---14---12----10----12---------------------14
A/-------------------------------------------------------------------------
E/-------------------------------------------------------------------------
  arrastren en el pasaje de un tono a otro para darle mejor sonido 
E/-------19---15----------------19--15-------------------------------------
B/--15-------------19bu----15-----------19bu17bu_17-15-17bu--------
G/-------------------------------------------------------------------------
D/-------------------------------------------------------------------------
A/-------------------------------------------------------------------------
E/-------------------------------------------------------------------------

E/-------19---15----------------19--15-------------------------------------
B/--15-------------19BU----15-----------19bu-17bu_17-15-17bu------------------
G/-------------------------------------------------------------------*161514-----------------
D/--------------------------------------------------------------------------171614----------
A/---------------------------------------------------------------------------------171614*-
E/-------------------------------------------------------------------------
la ultimapartehacela bien rapida paraque suene*

E/-------19---15----------------19--15-------------------------------------
B/--15-------------19bu----15-----------19bu17bu_17-15-17bu--------
G/-------------------------------------------------------------------------
D/-------------------------------------------------------------------------
A/-------------------------------------------------------------------------
E/-------------------------------------------------------------------------

E/-------19---15----------------19--15-------------------------------------
B/--15-------------19bu----15-----------19bu17bu_17-15-17bu--------
G/-----------------------------------------------------------------17/2--------
D/-------------------------------------------------------------------------
A/-------------------------------------------------------------------------
E/-------------------------------------------------------------------------

bu:bend up estirar arriba
 _:ligar las notas
 /: arrastrar
los que tengan pedalera lo pueden tocar con chorus/bribrato y delay
una saludo a angel racco porayudarme a  sacarlo a punto critico y a cabezas de camara =)

 dudas y quejas  a maxistereo03@hotmail.com

Fuente original ATAME [www.atame.org]
Colaborador original: maximiliano pugliese [maxistereo03@hotmail.com]

Fuente: tusacordes.com