a b c d e f g h i j k l m n o p q r s t u v w x y z 0-9

Te Para 3

Soda Stereo

			
Jaja, este es el pique que me tardo 3 horas, 
pero por fin lo saque, creo que lo saque parecido, 
pero esta bueno, aquí les va:

E/-------19---15----------------19--15-------------------------------------
B/--15-------------17/15----15-----------17/19—17h15---17------------------
G/-------------------------------------------------------------------------
D/-------------------------------------------------------------------------
A/-------------------------------------------------------------------------
E/-------------------------------------------------------------------------

E/-------19---15----------------19--15-------------------------------------
B/--15-------------17/15----15-----------17/19—17h15---17-—17/20-----------
G/-------------------------------------------------------------------------
D/-------------------------------------------------------------------------
A/-------------------------------------------------------------------------
E/-------------------------------------------------------------------------

E/-------19---15----------------19--15--------------------------------------------------
B/--15-------------17/15----15-----------17/19—17h15---17—-17/20---17h15------15—15/17--
G/------------------------------------------------------------------------16------------
D/--------------------------------------------------------------------------------------
A/--------------------------------------------------------------------------------------
E/--------------------------------------------------------------------------------------

E/--5---5/75---5/7---5-------------
B/--5---5/75---5/7---5---7---3/5---
G/--5---5/75---5/7---5---7---2/4---
D/----------------------------------
A/----------------------------------
E/----------------------------------

Esta parte la hace el teclado pero da con el solo:

E/-----------------------------------------------------
B/------8--10—-10/1110--10--8-----10/1110—10-—8------
G/---9--------------------------9------------------9---
D/-----------------------------------------------------
A/-----------------------------------------------------
E/-----------------------------------------------------

E/--12/14------------------------------------7---------7--10--9--7-----------------------
B/-------------------3—2----------3--2-------8------8---------------10-8-7—8-7-----------
G/--12/14----5v—5v---------5v—5v--------5/9--9---9------------------------------9—7—9----
D/---------------------------------------------------------------------------------------
A/---------------------------------------------------------------------------------------
E/---------------------------------------------------------------------------------------

Hay dos formas para esta parte, pero aquí les dejo las dos:

E/-------3--5--5/7--5--3--5--7/9--7--5--------3h2--------0------
B/-------3-—5—-5/7--5--3--5--7/9--7--5-----5-------5--3--0------
G/--3h4--4—-6--5/7--6--4--6--7/9--7--6--4----------------0------
D/-------------------------------------------------------2------
A/-------------------------------------------------------2------
E/-------------------------------------------------------0------

E/-------3--5--5/7--5--3--5--7/9--7--5--------3h2--------0------
B/---------—-—--------------------------5----------5--3--0------
G/--3h4--4—-6--5/7--6--4--6--7/9--7--6--4----------------0------
D/-------------------------------------------------------2------
A/-------------------------------------------------------2------
E/-------------------------------------------------------0------

Y se repite:

E/-------19---15----------------19--15-------------------------------------
B/--15-------------17/15----15-----------17/19—17h15---17------------------
G/-------------------------------------------------------------------------
D/-------------------------------------------------------------------------
A/-------------------------------------------------------------------------
E/-------------------------------------------------------------------------

E/-------19---15----------------19--15-------------------------------------
B/--15-------------17/15----15-----------17/19—17h15---17—17/20------------
G/-------------------------------------------------------------------------
D/-------------------------------------------------------------------------
A/-------------------------------------------------------------------------
E/-------------------------------------------------------------------------

E/-------19---15----------------19--15-------------------------------------------
B/--15-------------17/15----15-----------17/19—17h15---17/20—17h15-----15—15h17--
G/------------------------------------------------------------------16-----------
D/-------------------------------------------------------------------------------
A/-------------------------------------------------------------------------------
E/-------------------------------------------------------------------------------

E/-------19---15----------------19--15-------------------------------------
B/--15-------------17/15----15-----------17/19—17h15---17—-178------------
G/-------------------------------------------------------------------------
D/-------------------------------------------------------------------------
A/-------------------------------------------------------------------------
E/-------------------------------------------------------------------------

/: slide para abajo
.: slide para arriba
v: vibrado 
h: Ligado  

Para mi esta es una de las mejores canciones de Soda Stereo, 
esta tablatura se la quisiera dedicar a Paola, 
la persona que mas quiero en el mundo, 
Aunque solo me considere su amigo
Espero que les guste muchísimo¡¡¡¡¡¡¡¡¡¡¡¡¡¡¡¡¡¡¡¡¡

Fuente original ATAME [www.atame.org]
Colaborador original: igor ayala dueñas [petalo_de_sal@hotmail.com]

Fuente: tusacordes.com