a b c d e f g h i j k l m n o p q r s t u v w x y z 0-9

Te Hacen Falta Vitaminas

Soda Stereo

			
Intro

g -------------||
d -------------||
a -------0-----||
e -------------||

Verso y Requinto

g ------------------------------------------------||
d -------2/4/2--------2/4/2-----------------------||
a -0--4---------0--4---------3-3--3--2-2--2---0---||
e ------------------------------------------------||

fill  2

g ----------------------||
d -7-7-7-7-7-7-7-7-7----||
a ----------------------||
e ----------------------||

Coro

g --------------------------------------------------||
d --------------------------------------------------||
a -2--2--2--2--5--5--5--5---------------------------||
e -------------------------3--3--3--3--5--5--5--5---||

Pre-Requinto

g ---------6-6-9-9---------4-4-7-7-------------------
d -7-7-7-7---------5-5-5-5-----------------4-4-7-7---
a ---------------------------------5-5-5-5-----------
e ---------------------------------------------------

g --------------------||
d ---------6-6-9-9----||
a -7-7-7-7------------||
e --------------------||

Puente

g ----------------------------------||
d ----------------------------------|| 
a -2-2-2--3-3-3------5-5-5--7-7-7---||
e ----------------------------------||



Gracias , ay la gozan
viva Cerati

Fuente original ATAME [www.atame.org]
Colaborador original: Luis Alanis [luisdel14@yahoo.com.mx]

Fuente: tusacordes.com