a b c d e f g h i j k l m n o p q r s t u v w x y z 0-9

Té Para Tres

Soda Stereo

			
ESTA NO ES UNA INTERPRETACIÓN DEL MAESTRO CERATI EN NINGUNO DE SUS CONCIERTOS, ES UNA INTERPRETACIÓN PERSONAL PARA UNA VOZ UN POCO MAS GRUESA. NO INTENTEN HACERLA CON VOZ AGUDA YA QUE NO SONARÁ A LA CANCIÓN. 



INTRO

--3-3-3-------------------0-0-0-------------------3----
--0-0-0-0-0-0-0-0-0-0-0-1-1-1-1-1-1-1-1-1-1-1-1-0-0----
--0-0-0-------------------2-2-2-------------------0---
--0-0-0-------------------2-2-2-------------------0---
--2-2-2-------------------0-0-0-------------------2---
--3-3-3-------------------x-x-x-------------------3---              y se regresa al principio, cosa importante, los rasgueos de los acordes son abajo arriba abajo. Del punteo empieza arriba y termina arriba para empezar ael sgte acorde hacia abajo. Se tiene que tocar el punteo rápido, como el inicio de Signos, pero no en un tono fuerte sino melancólico, cuando vayan escuchando los sonidos que saca la guitarra se van a dar cuenta.
Cuando en la parte de abajo dice "rasgueo" se toca el acorde arriba y abajo hasta pasar al otro acorde, que siempre empezará hacia arriba.


            Las tazas sobre el maaanteeeeeeeeeel 
            La lluuuuvia deeerraaamaaaaaaadaaaaaaaaa 
-----------------3-r----------------0-0-0----------------------
----1-1-1-0------0--a---------------1-1-1-1-1-1-1-1-1-1-1-0----
-----------------0----s-------------2-2-2-----------------------
-----------------0------g-----------2-2-2-----------------------
-----------------2---------u--------0-0-0-----------------------
-----------------3----------e--o----x-x-x-----------------------

Un poco de miel  Un poco de miel   No basta
---0-r--------------3-r-------1-r---------0-r--------
---1---a------------0--a------1--a--------0--a-------
---2----s-----------0--s------2---s-------0---s------
---0------g---------0---g-----3----g------2----g-----
---3--------u-------2----u----3-----u-----2-----u----
---x----------e-----o-----e-o-1-------e-o-0------e-o--

Luego se repite en todas las demás estrofas el mismo tono para terminar en:

               Té para  Tres
----------------3-r--------0-------------------3-3-3
----------------0--a-------1-1-1-1-1-1-1-1-1-0-0-0-0
----------------0---s------2-------------------0-0-0
----------------0----g-----2-------------------0-0-0
----------------2-----u----0-------------------2-2-3
----------------3------e-o-0-------------------3-3-3

Y se vuelve al tono del intro

Espero que les haya gustado, y no olviden ponerle el sentimiento. Creo que todos sabemos que esta canción fue heca por Cerati en honor a su padre que falleció de Cáncer. Así que sentimiento hay! eh!
Espero que la vivan y que la punten bien. Gracias... totales!

Fuente: tusacordes.com