a b c d e f g h i j k l m n o p q r s t u v w x y z 0-9

Sueles Dejarme Solo

Soda Stereo

			
Intro
G--------------------------------
D--------------------------------
A----1--------------------------
E--------------------------------

Verso
G-----------------------------------
D-----------------------------------
A------------7--------3-3-3---5-5-5-
E----0--0---------------------------

Coro
G--------------|----------|----------|---------------
D--------------|----------|----------|---------------
A--------------|----------|----------|---------------
E----5-5---7---|--7-7--5--|--3-3--5--|-5-5-5-5-5-5-5-

Esta es toda la cancion lo unico que falta es que aveces al fin 
del verso le pone un adorno que no se que es.

Fuente original ATAME [www.atame.org]
Colaborador original: Fernando [Prieto]

Fuente: tusacordes.com