a b c d e f g h i j k l m n o p q r s t u v w x y z 0-9

Sobredosis De Tv

Soda Stereo

			
Esta es un corrección a las anteriores y como un toque final.

F#             E
Estoy desesperado
F#                       Bmriff
Soy tan vulnerable a su amor
F#              E
Ella ya se ha ido,
F#                      Bmriff
un hueco en mi habitación

Bmriff
e---------------------------------
b-----------5--4------------------
g-------4---------4---------------
d----4----4-----------------------
a--2------------------------------
E---------------------------------

F#             E
Estoy desesperado
F#                       Bmriff
Soy tan vulnerable a su amor
F#              E
Ella ya se ha ido,
F#                      Bmriff
un hueco en mi habitación
F#                   E
Sus manos siguen frías
F#                      Bmriff
He perdido la fascinación
F#                     E
Sus rasgos son escombros
F#                    Bmriff
Detienen mi respiración


e-4--------6------5--4---6----5---
b-5--------7------7--5---7----5---
g-6--------8------8--6---8----6---
d-x--------x------x--x---x----x---
a-x--------x------x--x---x----x---
E-x--------x------x--x---x----x---
Acuéstate-levántate, no puedo seguir así, oh no


e-4--------6------5--4---6----5---
b-5--------7------7--5---7----5---
g-6--------8------8--6---8----6---
d-x--------x------x--x---x----x---
a-x--------x------x--x---x----x---
E-x--------x------x--x---x----x---
Apágalo-enciéndelo, no puedo seguir así, oh no


F#              E
Sobredosis de T.V.,
F#                  Bmriff
no creo poder resistir
F#                     E
Y un aire demasiado denso
F#                       Bmriff
Si al menos estuvieras aquí
F#                E
Mi cuerpo procesado
F#                   Bmriff
Al ritmo de tu corazón
F#               E
Estoy desesperado
F#                        Bmriff
Soy tan vulnerable a su amor


e-4--------6------5--4---6----5---
b-5--------7------7--5---7----5---
g-6--------8------8--6---8----6---
d-x--------x------x--x---x----x---
a-x--------x------x--x---x----x---
E-x--------x------x--x---x----x---
Acuéstate-levántate, no puedo seguir así, oh no


e-4--------6------5--4---6----5---
b-5--------7------7--5---7----5---
g-6--------8------8--6---8----6---
d-x--------x------x--x---x----x---
a-x--------x------x--x---x----x---
E-x--------x------x--x---x----x---
Apágalo-enciéndelo, no puedo seguir así, oh no

Bmriffx 4

F#, E x 4


e-4--------6------5--4---6----5---
b-5--------7------7--5---7----5---
g-6--------8------8--6---8----6---
d-x--------x------x--x---x----x---
a-x--------x------x--x---x----x---
E-x--------x------x--x---x----x---
Acuéstate-levántate, no puedo seguir así, oh no


e-4--------6------5--4---6----5---
b-5--------7------7--5---7----5---
g-6--------8------8--6---8----6---
d-x--------x------x--x---x----x---
a-x--------x------x--x---x----x---
E-x--------x------x--x---x----x---
Apágalo-enciéndelo, no puedo seguir así, oh no

e-4--------6------5--4---6----5---
b-5--------7------7--5---7----5---
g-6--------8------8--6---8----6---
d-x--------x------x--x---x----x---
a-x--------x------x--x---x----x---
E-x--------x------x--x---x----x---
Acuéstate-levántate, apagalo, enciendeloooo

Bmriffx8

C#m      A        B
No puedo seguir maquinándome
C#m      A        B
No puedo, no puedo seguir masturbandome


hay una segunda guitarra de fondo q se repite en estas
lineas va como algo asi

b-----5-4-------5-4------5-4------5-4----------
g-4-4-------4-4------4-4------4-4-------------

Fuente original ATAME [www.atame.org]
Colaborador original: renne hernandez [knivesout@msn.com]

Fuente: tusacordes.com