a b c d e f g h i j k l m n o p q r s t u v w x y z 0-9

Sequencia Inicial

Soda Stereo

			
bueno parce espero que les guste, no soy el mas duro
 en la guitarra, pero con esfuerzo las cosa salen.
esto va dedicado a todas las personas de vergara cundinamarca COLOMBIA,
que les gusta soda stereo. osea solamente a mi hermano
 FELIX ANDRES CIFUENTES Y A MI PRIMO GERSON OLARTE  jajaja
haaa y con amor para mi KIKITA del alma haii ombe


INTRO
1------0000000--0/000/000000/0000--00000------|
2------5555555--5/777/101010/1111--00000------|
3------6666666--7/999/121212/2222--00000------|
4------7777777--7/999/121212/3333--22222------|
5------0000000--0/000/000000/0000--22222------|
6----------------------------------00000------|  X4

VERSO

1------44444--55555--|       1----/777787577/44444244244|
2------22222--22222--|       2----/555555555/22222222222|
3------22222--22222--|       3----/555555555/22222222222|
4------22222--22222--|       4----/555555555/22222222222|
5--------------------|       5--------------------------|
6--------------------|X 2    6--------------------------|X3

D  C

1----2--00000-|
2----2--00000-|
3----2--00000-|
4-------------|
5-------------|
6-------------|X4

VERSO

1------44444--55555--|       1----/777787577/44444244244|
2------22222--22222--|       2----/555555555/22222222222|
3------22222--22222--|       3----/555555555/22222222222|
4------22222--22222--|       4----/555555555/22222222222|
5--------------------|       5--------------------------|
6--------------------|X 2    6--------------------------|X3

D  C

1----2--00000-|
2----2--00000-|
3----2--00000-|
4-------------|
5-------------|
6-------------|X4

YA VIENE...

SOLO

1------------------------------------------------------------|
2----------------------------------------------3-3-----------|
3----2-2-0-0-000--2-2-0-0-000---4-4-2-2--2-2-2------2--2-2-2-|
4------------------------------------------------------------|
5------------------------------------------------------------|
6------------------------------------------------------------| x2

1------------000---------------------------------------------|
2------------000-------------------------------3-3-----------|
3----2-2-0-0-000--2-2-0-0-000---4-4-2-2--2-2-2------2--2-2-2-|
4------------------------------------------------------------|
5------------------------------------------------------------|
6------------------------------------------------------------|

1------------000---------------------------------------------|
2------------000-------------------------------3-3-----------|
3----2-2-0-0-000--2-2-0-0-000---4-4-2-2--2-2-2------2--2-2-2-|
4------------------------------------------------------------|
5------------------------------------------------------------|
6------------------------------------------------------------|


INTRO
1------0000000--0/000/000000/0000--00000------|
2------5555555--5/777/101010/1111--00000------|
3------6666666--7/999/121212/2222--00000------|
4------7777777--7/999/121212/3333--22222------|
5------0000000--0/000/000000/0000--22222------|
6----------------------------------00000------|  X3


1------44444--55555------/777787577/44444244244|
2------22222--22222------/555555555/22222222222|
3------22222--22222------/555555555/22222222222|
4------22222--22222------/555555555/22222222222|
5----------------------------------------------|
6----------------------------------------------|


1---0------|
2---1------|
3---2------|
4---3------|
5---3------|
6----------|


GRACIAS  GRACIAS MUCHAS GRACIAS PUEBLOFuente: Tus acordes